PrimaNota.ru - самый крупный в мире бесплатный архив песенных текстов, аккордов, табулатур и нот


Eskimo Joe - A Song Is A City - текст песни, бас-таба, видео

Регистрация Запомнить меня
Войти через:  Facebook Google Twitter Vk Yandex Mail.ru

Eskimo Joe - A Song Is A City - текст песни, бас-таба, видео

Печатать
Просмотров: 118
Song: A Song Is A City
Band: Eskimo Joe
Album: A Song Is A City
Tabber: Madagascar
Email: lil_airforce_midget@hotmail.com

h = hammer on
p = pull off
~ = ring

Intro
g|---------------------|
d|---------------------|
a|-11-11--9h11-11-9----|	x4
e|------------------11-|

Verse 1
g|---------------------|
d|---------------------|
a|-11-11--9h11-11-9----|	x4
e|------------------11-|

g|---------------------------------|
d|-------------------------5-5---5-|
a|-7-7-6h7-7-6---7-7-9-6-6-----6---|
e|-------------7-------------------|

g|---------------------|
d|---------------------|
a|-11-11--9h11-11-9----|	x4
e|------------------11-|

g|------------------------------------------|
d|--------------------------5-5--8-8--11-11-|
a|-7-7-6h7-7-6---7-7-9-6-6------------------|
e|-------------7----------------------------|

Chorus
g|--------------------------------------------|
d|------------------9-------------------------|
a|-11p-11p-11p
Добавлено: 08.09.2013
Другие материалы по этой песне:
  • Аккорды и текст

Страница создана 13.04.2012
http://primanota.ru/eskimo-joe/a-song-is-a-city-chords.htm
Привет, Гость.
Предлагаем пройти революционный курс по гитаре.
Подарок от PrimaNota.Ru, забирай!