PrimaNota.ru - самый крупный в мире бесплатный архив песенных текстов, аккордов, табулатур и нот


Eskimo Callboy - Party At The Horror House - таба, бас-таба, видео

Регистрация Запомнить меня
Войти через:  Facebook Google Twitter Vk Yandex Mail.ru

Eskimo Callboy - Party At The Horror House - таба, бас-таба, видео

Печатать
Просмотров: 1009
-------------------------------------------------------------------------------
                             Party At The Horror House - Eskimo Callboy
-------------------------------------------------------------------------------
Tabbed by: Edwin Rodriguez
E-mail: edwinal0504@hotmail.com
If you have questions just send a menssage on Fb: https://www.facebook.com/SlipknotSoadlmL?ref=tn_tnmn
Soon I will do a guitar cover but if you need help watch this: https://www.youtube.com/watch?v=BrF3s-cJMMI

Tuning: Drop C

Intro: 0:25 - 0:38

D|---------------------------------------------------------------------------|
A|---------------------------------------------------------------------------|
F|---------------------------------------------------------------------------|
C|-4474--474--474--71097--474--474--474--3-----------------------------------|x2
G|-4474--474--474--71097--474--474--474--3-----------------------------------|x2
C|-4474--474--474--71097--474--474--474--3-----------------------------------|x2

Verse 1: 0:39 - 0:49

D|---------------------------------------------------------------------------|
A|---------------------------------------------------------------------------|
F|---------------------------------------------------------------------------|
C|-00-00000--99-99999--44-44444--22-22222--00-00000--99-99999--44-44444------|
G|-00-00000--99-99999--44-44444--22-22222--00-00000--99-99999--44-44444------|
C|-00-00000--99-99999--44-44444--22-22222--00-00000--99-99999--44-44444------|

Verse 2: 0:51 - 0:57

D|---------------------------------------------------------------------------|
A|---------------------------------------------------------------------------|
F|---------------------------------------------------------------------------|
C|----------------------66-6666-6666-666-------------------------------------|x2
G|----------------------66-6666-6666-666-------------------------------------|x2
C|----------------------66-6666-6666-666-------------------------------------|x2

Verse 3: 0:58 - 1:11

D|---------------------------------------------------------------------------|
A|---------------------------------------------------------------------------|
F|---------------------------------------------------------------------------|
C|-00-3565--000000000--(x2)---66-6666-6666-6666-6666-6666-6666-6666----------|
G|-00-3565--000000000--(x2)---66-6666-6666-6666-6666-6666-6666-6666----------|
C|-00-3565--000000000--(x2)---66-6666-6666-6666-6666-6666-6666-6666----------|

Chorus: 1:17 - 1:30

D|---------------------------------------------------------------------------|
A|---------------------------------------------------------------------------|
F|---------------------------------------------------------------------------|
C|-00000000--2-2222222--44444444--77777777-----------------------------------|x2
G|-00000000--2-2222222--44444444--77777777-----------------------------------|x2
C|-00000000--2-2222222--44444444--77777777-----------------------------------|x2

Verse 1: 1:31 - 1:41

D|---------------------------------------------------------------------------|
A|---------------------------------------------------------------------------|
F|---------------------------------------------------------------------------|
C|-00-00000--99-99999--44-44444--22-22222--00-00000--99-99999--44-44444------|
G|-00-00000--99-99999--44-44444--22-22222--00-00000--99-99999--44-44444------|
C|-00-00000--99-99999--44-44444--22-22222--00-00000--99-99999--44-44444------|

Intro: 1:43 - 1:56

D|---------------------------------------------------------------------------|
A|---------------------------------------------------------------------------|
F|---------------------------------------------------------------------------|
C|-4474--474--474--71097--474--474--474--3-----------------------------------|x2
G|-4474--474--474--71097--474--474--474--3-----------------------------------|x2
C|-4474--474--474--71097--474--474--474--3-----------------------------------|x2

Verse 3: 1:57 - 2:14

D|---------------------------------------------------------------------------|
A|---------------------------------------------------------------------------|
F|---------------------------------------------------------------------------|
C|-00-3565--000000000--(x4)---66-6666-6666-6666-6666-6666-6666-6666----------|
G|-00-3565--000000000--(x4)---66-6666-6666-6666-6666-6666-6666-6666----------|
C|-00-3565--000000000--(x4)---66-6666-6666-6666-6666-6666-6666-6666----------|

Chorus: 2:21 - 2:34

D|---------------------------------------------------------------------------|
A|---------------------------------------------------------------------------|
F|---------------------------------------------------------------------------|
C|-00000000--2-2222222--44444444--77777777-----------------------------------|x2
G|-00000000--2-2222222--44444444--77777777-----------------------------------|x2
C|-00000000--2-2222222--44444444--77777777-----------------------------------|x2

Verse 1: 2:34 - 2:46

D|---------------------------------------------------------------------------|
A|---------------------------------------------------------------------------|
F|---------------------------------------------------------------------------|
C|-00-00000--99-99999--44-44444--22-22222--00-00000--99-99999--44-44444------|
G|-00-00000--99-99999--44-44444--22-22222--00-00000--99-99999--44-44444------|
C|-00-00000--99-99999--44-44444--22-22222--00-00000--99-99999--44-44444------|

Dubstep part : 2:49 - 2:58

D|---------------------------------------------------------------------------|
A|---------------------------------------------------------------------------|
F|---------------------------------------------------------------------------|
C|-4----5-5-4----2-5-4----5-4------------------------------------------------|
G|-4----5-5-4----2-5-4----5-4------------------------------------------------|
C|-4----5-5-4----2-5-4----5-4------------------------------------------------|

TREMOLO PICKING!! 2:59 - END

D|---14---17---16--------------14---17---16---17----19---16------------------|x2
A|------------------14----17-------------------------------------------------|x2
F|---------------------------------------------------------------------------|
C|---------------------------------------------------------------------------|
G|---------------------------------------------------------------------------|
C|---------------------------------------------------------------------------|




************************************
     Hope you like this tabs!
************************************
Добавлено: 07.08.2015
Другие материалы по этой песне:
  • Аккорды и текст

Страница создана 23.03.2014
http://primanota.ru/eskimo-callboy/party-at-horror-house-chords.htm
Привет, Гость.
Предлагаем пройти революционный курс по гитаре.
Подарок от PrimaNota.Ru, забирай!