PrimaNota.ru - самый крупный в мире бесплатный архив песенных текстов, аккордов, табулатур и нот


Eskimo Callboy - Is Anyone Up - текст песни, таба, видео

Регистрация Запомнить меня
Войти через:  Facebook Google Twitter Vk Yandex Mail.ru

Eskimo Callboy - Is Anyone Up - текст песни, таба, видео

Печатать
Просмотров: 233
--------------------------------------------------------------------------------------------
                              IS ANYONE UP - Eskimo Callboy
--------------------------------------------------------------------------------------------
Tabbed by: Michal Zelený
E-mail: michalzelen02@gmail.com

Tuning: Dropped D (DADGBe) 
The original tuning is Drop C, so if you want to play in original tuning just add +2 fretts to every tone.

This tab follows the synths track.

SYNTHS INTRO (0:00 - 0:27) -----------------------------------------------------------------

e|11---8---10-11-15-11-10---10-11-10-|11---8---10-11-15-8-8---8-11-10-|
B|-----------------------------------|--------------------------------|
G|-----------------------------------|--------------------------------|
D|-----------------------------------|--------------------------------|   Repeat four times
A|-----------------------------------|--------------------------------|
D|-----------------------------------|--------------------------------| 

INTRO VOCALS (0:27 - 0:40) ------------------------------------------------------------------

Softly

e|11---8---10-11-15-11-10---10-11-10-|11---8---10-11-15-8-8---8-11-10-|
B|-----------------------------------|--------------------------------|
G|-----------------------------------|--------------------------------|
D|-----------------------------------|--------------------------------|
A|-----------------------------------|--------------------------------|
D|-----------------------------------|--------------------------------|

e|11---8---10-11-15-11-10---10-11-10-|11---8---10-11-15-8-8---------|
B|-----------------------------------|------------------------------|
G|-----------------------------------|------------------------------|
D|-----------------------------------|------------------------------|
A|-----------------------------------|------------------------------|
D|-----------------------------------|----------------------1-------|

INTRO BREAKDOWN ----------------------------------------------------------------------------

 . . . 

********************************************************************************************

Follows the synth track. Please rate.
#5
Добавлено: 17.06.2016
Другие материалы по этой песне:

Страница создана 11.08.2013
http://primanota.ru/eskimo-callboy/is-anyone-up-chords.htm
Привет, Гость.
Предлагаем пройти революционный курс по гитаре.
Подарок от PrimaNota.Ru, забирай!