PrimaNota.ru - самый крупный в мире бесплатный архив песенных текстов, аккордов, табулатур и нот


Eskimo Callboy - Best Day - таба, видео

Регистрация Запомнить меня
Войти через:  Facebook Google Twitter Vk Yandex Mail.ru

Eskimo Callboy - Best Day - таба, видео

Печатать
Просмотров: 699
-------------------------------------------------------------------------------
                  Best Day(feat. Sido) - Eskimo Callboy
-------------------------------------------------------------------------------
Tabbed by:Alexey Bagno

Tuning:Drop C


************************************

| ~   Palm Mute
| b   Bend

************************************


Pre-Chorus

D|------------------|
A|------------------|
F|-4444444444444444-|
C|-4444444444444444-|
G|-2222222222222222-|
C|------------------|


Chorus

D|------------------------------------------------------------------------|
A|------------------------------------------------------------------------|
F|-------------------5-5--5--55555555--------------------7-7--7--77777777-|
C|-2-2--2--22222222--5-5--5--55555555--5-5--5--55555555--7-7--7--77777777-|
G|-2-2--2--22222222--3-3--3--33333333--5-5--5--55555555--5-5--5--55555555-|
C|-2-2--2--22222222--------------------5-5--5--55555555-------------------|


Verse 1

D|-------------------------------------------------------------------|
A|-------------------------------------------------------------------|
F|-------------------------------------------------------------------|
C|-------------------------------------------------------------------|
G|-----------------3333333333333333----------------55555555555555555-|
C|-2222222222222222----------------5555555555555555------------------|
   ~~~~~~~~~~~~~~~~~~~~~~~~~~~~~~~~~~~~~~~~~~~~~~~~~~~~~~~~~~~~~~~~~

Verse 2(First part, second is Verse 1)

D|------------------------------------------------------------------|
A|------------------------------------------------------------------|
F|------------------------------------------------------------------|
C|------------------------------------------------------------------|
G|------------------------------------------------------------------|
C|-2222222222222222222222225555555522222222222222222222222255555555-|
   ~~~~~~~~~~~~~~~~~~~~~~~~~~~~~~~~~~~~~~~~~~~~~~~~~~~~~~~~~~~~~~~~


Breakdown

D|----------------------------|
A|----------------------------|
F|-----------3b------------4b-|
C|-0-0-0-0-0-----0-0-0-0-0----|
G|-0-0-0-0-0-----0-0-0-0-0----|
C|-0-0-0-0-0-----0-0-0-0-0----|
     ~   ~         ~   ~

Strumming pattern may be incorrect.
Добавлено: 08.10.2015
Другие материалы по этой песне:
  • Аккорды и текст

Страница создана 08.10.2015
http://primanota.ru/eskimo-callboy/best-day-chords.htm
Привет, Гость.
Предлагаем пройти революционный курс по гитаре.
Подарок от PrimaNota.Ru, забирай!