PrimaNota.ru - самый крупный в мире бесплатный архив песенных текстов, аккордов, табулатур и нот


Eskimeaux - A Hug Too Long - аккорды и текст, видео

Регистрация Запомнить меня
Войти через:  Facebook Google Twitter Vk Yandex Mail.ru

Eskimeaux - A Hug Too Long - аккорды и текст, видео

Печатать
Просмотров: 96
A Hug Too Long
Eskimeaux
-------------------------------------------------------------------------------
                        A Hug Too Long - Eskimeaux
-------------------------------------------------------------------------------

Tuning: Standard

Capo 2

intro riff:
e|---------------------------------------------------------------------------|
B|---------------------------------------------------------------------------|
G|---------------------------------------------------------------------------|
D|--------0------------------------------------------------------------------|
A|-----------3--2--0--2------------------------------------------------------|
E|--0--3-----------------3---------------------------------------------------|

Main Progression:
     G                                  Em  D   C
e|------------------------------------------2-2--------------------------------|
B|------------------------------------------3-3--------------------------------|
G|------------------------------------------2-2--------------------------------|
D|--------------------------------------2-2-----2-2-2-2-2-2--------------------|
A|---2-2-0-2-2-0-2-2-0-2-2-0-2-2-2-2-2--2-2-----3-3-3-3-3-3--------------------|
E|---3-3-3-3-3-3-3-3-3-3-3-3-3-3-3-3-3-----------------------------------------|

                     G
And if you ever told me
     Em  D    C
That you were scared
Em D   G
I'd  appear there
                       G
And if you ever wanted me
    Em D C
I'd be   scared
     Em D   G
That I'd  agree there

    Em    D         C
But why tonight was foolish
Em  D      C
You didn't see it
Em  D       G
You went to work
Em     D      G
I went to New Brunswick
    Em    D       C
And I was feeling foolish
Em    D         C
Maybe you could see it
Em  D       G
You went to work
Em     D      G
I went to New Brunswick

                   G
So maybe I am dead wrong
  Em  D   C
A hug too long
  Em   D        G
I went for your hair
                     G
And if you ever want me
       Em   D    C
You'll hear this song
    Em       D   G
And you will hug me there

  Em      D       C
A sway, a bump, a blush
  Em         D          C
A dream that carelessly carried us
Em  D       G
You went to work
Em     D      G
I went to New Brunswick
    Em      D   C
And I can't get enough
      Em     D       C
I'm a thunderclap of blood
  Em       D         G
I float, I drench, I tear
Em    D          G
Gabby stop right there
Добавлено: 22.02.2016
Другие материалы по этой песне:
  • Аккорды и текст

Страница создана 22.02.2016
http://primanota.ru/eskimeaux/hug-too-long-chords.htm
Привет, Гость.
Предлагаем пройти революционный курс по гитаре.
Подарок от PrimaNota.Ru, забирай!