PrimaNota.ru - самый крупный в мире бесплатный архив песенных текстов, аккордов, табулатур и нот


Escaryum - Oeil Pour Vent - аккорды и текст, таба

Регистрация Запомнить меня
Войти через:  Facebook Google Twitter Vk Yandex Mail.ru

Escaryum - Oeil Pour Vent - аккорды и текст, таба

Печатать
Просмотров: 105
Oeil Pour Vent
Escaryum
		   -##

Title:         Oeil Pour Dent
Group:        Escaryum
Album:         Ne POur Mourrir (Demo)
Wrote by:     B.Lamoureux,B.Houde\M.Gosselin(lyrics)
Transcribe by: B.Lamoureux
----------------------------------------------------------------------
I juste wrote the note, the rythm is easy to find out..














----------------------------------------------------------------------



Guitar 1
Riff A (played 5 times)  Bass intro       Riff B
With Tremolo                                                Distortion
|-----------------------|---------4---4----|------------------|----------
|-----------------------|--------5-----5---|---9----5---5-4---|----------
|-----------------------|-------6-------6--|-6--6\2---2----2/6|----------
|-----------------------|------6---------6-|------------------|-7--9-----
|---10-----7---7-6------|-----4-----------4|------------------|-7--9-----
|-7----9\5---5-----5/9--|------------------|------------------|-5--7-----


Guitar 2


|-----------------------|------0-------0---|-0---0---0---0----|----------
|-----------------------|------14------14--|-14--10--12--14---|-10-12----
|-----------------------|------13------13--|-13--9---11--13---|-9--11----
|-----------------------|------------------|------------------|----------
|-----------------------|------------------|------------------|----------
|-----------------------|------------------|------------------|----------


Guitar 1
                                               Riff B

|----------------------------------------------|-------------------------
|----------------------------------------10-9--|-------------------------
|-----------------------6-9-----9-8--6-9-9--8--|-------------------------
|---6----------6--7-9---6-9-7-9-9-8--6-9-7--6--|-------------------------
|-4------7-6-4----7-9---4-7-7-9-7-6--4-7-7--6--|-------------------------
|-----5-----------5-7-------5-7----------------|-------------------------




P.M..       ...........      .....
|------------------------------------------------------------------------
|------------------------------------------------------------------------
|------------------------------------------------------------------------
|-------6/\/\------------------------6/\/\-------------------------------
|-4-4-4-------------------7-6--4-4-4-------------------------------------
|-------------5-5-5-5-5-5------------------------------------------------




                                                 B.H.
|------------------------------------------------------12-12p11p9--------
|------------------------------------------------------12--------12p10p9-
|-6-9-----6-9----------------9/\/\---9-11/\/\-9-11-11/-------------------
|-6-9-7-9-6-9-7-9--9/11-9-11-------11------------------------------------
|-4-7-7-9-4-7-7-9--------------------------------------------------------
|-----5-7-----5-7--------------------------------------------------------





|------------------------------------------------------------------------
|-------12---------------------------------------------------12-13-14----
|-11full--11full\-9-11--11-9---------------9---9/11--11-12-13------------
|----------------------------11-9-11--9-11---11--------------------------
|------------------------------------------------------------------------
|------------------------------------------------------------------------





|------------------------------------------------------------------------
|-14-14/17---17-16---17--17-16---17--17-16--17-17full-17-16-17-13--------
|----------13------13--13------13--13--------------------------12--------
|------------------------------------------------------------------------
|----------------------------------------------------------------x\x-----
|----------------------------------------------------------------x\x-----




--PART.BOUNDARY.902.15155.nyongwa.montreal.qc.ca.782596103.1--     
Добавлено: 17.09.2013
Другие материалы по этой песне:
  • Аккорды и текст

Страница создана 10.03.2012
http://primanota.ru/escaryum/oeil-pour-vent-chords.htm
Привет, Гость.
Предлагаем пройти революционный курс по гитаре.
Подарок от PrimaNota.Ru, забирай!