PrimaNota.ru - самый крупный в мире бесплатный архив песенных текстов, аккордов, табулатур и нот


Escape The Fate - Until We Die - таба, бас-таба, видео

Регистрация Запомнить меня
Войти через:  Facebook Google Twitter Vk Yandex Mail.ru

Escape The Fate - Until We Die - таба, бас-таба, видео

Печатать
Просмотров: 238
Уроки эстрадного вокала в Санкт-Петербурге
Tabbed by: Raptore

Will update any mistakes and when I complete the solo.

INTRO
(0:06)
D|-----------------------------------------------------------|
A|-----------------------------------------------------------|
F|--9~~~~~~--------------------------------------------------|
C|----8~~~~--------------------------------------------------|
G|------5~~--------------------------------------------------|
C|-----------------------------------------------------------|

(0:14)
D|-----------------------------------------------------------|
A|-----------------------------------------------------------|
F|-----------------------------------------------------------|
C|-----------------------------------------------------------|
G|-----------------------------------------------------------|
C|-000000-00-------------------------------------------------|x8
   ...... ..

(0:25)
D|-----------------------------------------------------------|
A|-----------------------------------------------------------|
F|--7-----9-----10-----7-----9----10-------------------------|
C|----000---000----000---000---00----------------------------|
G|-----------------------------------------------------------|
C|-----------------------------------------------------------|
      ...   ...    ...   ...   ..

D|-----------------------------------------------------------|
A|-----------------------------------------------------------|
F|-10--9--7--10--9--7--10--7--10--10--9--7--9----------------|
C|-----------------------------------------------------------|
G|-----------------------------------------------------------|
C|-----------------------------------------------------------|
                                            *

D|-----------------------------------------------------------|
A|-----------------------------------------------------------|
F|--7-----9-----10-----7-----9----10-------------------------|
C|----000---000----000---000---00----------------------------|
G|-----------------------------------------------------------|
C|-----------------------------------------------------------|
      ...   ...    ...   ...   ..

D|-----------------------------------------------------------|
A|-----------------------------------------------------------|
F|-9b11-10-9-7~-101010-9-7-----------------------------------|
C|-----------------------------------------------------------|
G|-----------------------------------------------------------|
C|-----------------------------------------------------------|

D|-----------------------------------------------------------|
A|-11-------11-------11-----11-------------------------------|
F|---14-------14-------13-----13-----------5-----------------|
C|-----13-------13--------------14---------5-----------------|
G|-----------------------------------------------------------|
C|------------------------------------0000-------------------|
                                      .... ^ 

(0:39)
VERSE
D|-----------------------------------------------------------|
A|-----------------------------------------------------------|
F|-----------------------------------------------------------|
C|-3---------3---2-------------------------------------------|
G|-----3h5---------------------------------------------------|
C|---0-----0---0---00000000----------------------------------|x2
     .     .   .   ........

D|-----------------------------------------------------------|
A|-----------------------------------------------------------|
F|-----------------------------------------------------------|
C|-----------------------------------------------------------|
G|-8---8h12---8---7------------------------------------------|
C|---8------8---8---88888888---------------------------------|
      .     .   .   ........

D|-----------------------------------------------------------|
A|-----------------------------------------------------------|
F|-----------------------------------------------------------|
C|-5---------5---3------------3-5---2------------------------|
G|-----5h7------------------------5--------------------------|
C|---0-----0---0---00000000----------------------------------|
     .     .   .   ........

D|-----------------------------------------------------------|
A|-----------------------------------------------------------|
F|-----------------------------------------------------------|
C|---------------------------3-5---2-------------------------|
G|-------------------------------5---------------------------|
C|-00(alot)88(alot)77(alot)----------------------------------|
   ..      ..      ..

(1:02)
CHORUS
D|-----------------------------------------------------------|
A|-----------------------------------------------------------|
F|---------------------------555555555555-333333333333-------|
C|-000000000000-333333333333-555555555555-333333333333-------|
G|-000000000000-333333333333-333333333333-111111111111-------|
C|-000000000000-333333333333---------------------------------|x2

(1:24)
VERSE
D|-----------------------------------------------------------|
A|-----------------------------------------------------------|
F|-----------------------------------------------------------|
C|-3---------3---2-------------------------------------------|
G|-----3h5---------------------------------------------------|
C|---0-----0---0---00000000----------------------------------|x2
     .     .   .   ........

D|-----------------------------------------------------------|
A|-----------------------------------------------------------|
F|-----------------------------------------------------------|
C|-----------------------------------------------------------|
G|-8---8h12---8---7------------------------------------------|
C|---8------8---8---88888888---------------------------------|
      .     .   .   ........

D|-----------------------------------------------------------|
A|-----------------------------------------------------------|
F|-----------------------------------------------------------|
C|-5---------5---3------------3-5---2------------------------|
G|-----5h7------------------------5--------------------------|
C|---0-----0---0---00000000----------------------------------|
     .     .   .   ........

D|-----------------------------------------------------------|
A|-----------------------------------------------------------|
F|-----------------------------------------------------------|
C|---------------------------3-5---2-------------------------|
G|-------------------------------5---------------------------|
C|-00(alot)88(alot)77(alot)----------------------------------|
   ..      ..      ..

(1:47)
CHORUS
D|-----------------------------------------------------------|
A|-----------------------------------------------------------|
F|---------------------------555555555555-333333333333-------|
C|-000000000000-333333333333-555555555555-333333333333-------|
G|-000000000000-333333333333-333333333333-111111111111-------|
C|-000000000000-333333333333---------------------------------|x2

D|-----------------------------------------------------------|
A|-----------------------------------------------------------|
F|-33---33---3---33---33---3---------------------------------|
C|-33---33---3---33---33---3---------------------------------|
G|-11---11---1---11---11---1---------------------------------|
C|----0----0---0----0----0-----------------------------------|
      .    .   .    .    .
(2:44)
SOLO
(still working on it!)

(3:15)
CHORUS
D|-----------------------------------------------------------|
A|-----------------------------------------------------------|
F|---------------555555555555-333333333333-------------------|
C|--333333333333-555555555555-333333333333-------------------|
G|--333333333333-333333333333-111111111111-------------------|
C|--333333333333---------------------------------------------|

D|-----------------------------------------------------------|
A|-----------------------------------------------------------|
F|---------------------------555555555555-333333333333-------|
C|-000000000000-333333333333-555555555555-333333333333-------|
G|-000000000000-333333333333-333333333333-111111111111-------|
C|-000000000000-333333333333---------------------------------|

D|-----------------------------------------------------------|
A|-----------------------------------------------------------|
F|-33---33---3---33---33---3---------------------------------|
C|-33---33---3---33---33---3---------------------------------|
G|-11---11---1---11---11---1---------------------------------|
C|----0----0---0----0----0-----------------------------------|
      .    .   .    .    .
(3:37)
OUTRO
D|-----------------------------------------------------------|
A|-----------------------------------------------------------|
F|-----------------------------------------------------------|
C|-----------------------------------------------------------|
G|-----------------------------------------------------------|
C|-00(alot)--------------------------------------------------|
   ..

(3:48)
Last part played with a whammy bar 3(low c)
but you can kind of play it with a pinch harmonic, bend down.
D|-----------------------------------------------------------|
A|-----------------------------------------------------------|
F|-----------------------------------------------------------|
C|-----------------------------------------------------------|
G|-----------------------------------------------------------|
C|-(GUITAR1)-3b----------------(GUITAR2)-00------------------|
             *                           ..


************************************
| .   palm mute
| *   pinch harmonic
| h   hammer-on
| p   pull-off
| ~   vibrato
| ^   harmonic
| b   Bend

************************************
Добавлено: 12.06.2013
Другие материалы по этой песне:

Страница создана 12.06.2013
http://primanota.ru/escape-the-fate/until-we-die-chords.htm
Привет, Гость.
Предлагаем пройти революционный курс по гитаре.
Подарок от PrimaNota.Ru, забирай!