PrimaNota.ru - самый крупный в мире бесплатный архив песенных текстов, аккордов, табулатур и нот


Escape The Fate - The Structure Falls - текст песни, таба, видео

Регистрация Запомнить меня
Войти через:  Facebook Google Twitter Vk Yandex Mail.ru

Escape The Fate - The Structure Falls - текст песни, таба, видео

Печатать
Просмотров: 186
The Structure Falls by Escape The Fate
Tabbed by Electrarookie

Drop C Tuning

LEAD GUITAR
D-------------------------------------|
A-------------------------------------|
F-------------------------------------|
C---------------7---------------------|
G-----8--7H8P7----------8--7H8P7------|
C-0-0---0-----10----0-0---0------10P0-|
  . .   .     .     . .   .

D-------------------------------------|
A-------------------------------------|
F-------------------------------------|
C----------------7--------------------|
G-----8---7H8P7---------8---8P7/10----|
C-8-8---8------8----8-8---8-----------|
  . .   .     .     . .   .

D-------------------------------------|
A-------------------------------------|
F-------------------------------------|
C-------------------------------------|
G-----8---8-----8---8-----8---8-------|
C-5-5---5---5-5---5---5-5---5---------|
  . .   .   . .   .   . .   .

D-------------------------------------|
A-------------------------------------|
F-------------------------------------|
C-------------------------------------|
G-3-3-3-3-3-3-3-3-3-3-3-3-3-3-3-3-----|
C-3-3-3-3-3-3-3-3-3-3-3-3-3-3-3-3-----|

RHYTHM GUITAR
D-------------------------------------|
A-------------------------------------|
F-------------------------------------|
C-------------------------------------|
G-0-0---------------------------------|
C-0-0---------------------------------|
  . .

D-------------------------------------|
A-------------------------------------|
F-------------------------------------|
C-------------------------------------|
G-8-8-------------------------------7-|
C-8-8-------------------------------7-|
  . .                               .

D-------------------------------------|
A-------------------------------------|
F-------------------------------------|
C-------------------------------------|
G-5-----------------------------------|
C-5-----------------------------------|
  .

D-------------------------------------|
A-------------------------------------|
F-------------------------------------|
C-------------------------------------|
G-3-3-3-3-3-3-3-3-3-3-3-3-3-3-3-3-----|
C-3-3-3-3-3-3-3-3-3-3-3-3-3-3-3-3-----|





LEAD GUITAR
D-------------------------------------|
A-------------------------------------|
F-------------------------------------|
C---------------7---------------------|
G-----8---8P7----------8--7H8P7-------|
C-0-0---0----10----0-0---0------10P0--|
  . .   .    .     . .   .

D---------------------------------------|
A---------------------------------------|
F---------------------------------------|
C----------------7----------------------|
G-----8---8P7----------8---7h8p7-8h10p8-|
C-8-8---8-----8----8-8---8--------------|
  . .   .     .    . .   .

D-------------------------------|
A-------------------------------|
F-------------------------------|
C-------------------------------|
G-----8---8-----8---8-----8---8-|
C-5-5---5---5-5---5---5-5---5---|
  . .   .   . .   .   . .   .

D---------------------------------|
A---------------------------------|
F---------------------------------|
C---------------------------------|
G-3-3-3-3-3-3-3-3-3-3-3-3-3-3-3-3-|
C-3-3-3-3-3-3-3-3-3-3-3-3-3-3-3-3-|

RHYTHM GUITAR
D-----------------------------------------------|
A-----------------------------------------------|
F-----------------------------------------------|
C-------------------10--------------------------|
G-----12---12P10-------------12---10H12P10------|
C-0-0----0-------14------0-0----0----------14P0-|
  . .    .       .       . .    .

D--------------------------------------------------|
A--------------------------------------------------|
F--------------------------------------------------|
C------------------10------------------------------|
G-----12---12P10------------12---10H12P10-12H13P12-|
C-8-8----8-------8------8-8----8-------------------|
  . .    .       .      . .    .

D--------------------------------------------------|
A--------------------------------------------------|
F--------------------------------------------------|
C-----7---7-----7---7-----7---7--------------------|
G--------------------------------------------------|
C-5-5---5---5-5---5---5-5---5----------------------|
  . .   .   . .   .   . .   .

D---------------------------------|
A---------------------------------|
F---------------------------------|
C---------------------------------|
G-3-3-3-3-3-3-3-3-3-3-3-3-3-3-3-3-|
C-3-3-3-3-3-3-3-3-3-3-3-3-3-3-3-3-|

That's all
Please rate 5 stars
Thanks
Добавлено: 04.04.2012
Другие материалы по этой песне:

Страница создана 23.03.2012
http://primanota.ru/escape-the-fate/the-structure-falls-chords.htm
Привет, Гость.
Предлагаем пройти революционный курс по гитаре.
Подарок от PrimaNota.Ru, забирай!