PrimaNota.ru - самый крупный в мире бесплатный архив песенных текстов, аккордов, табулатур и нот


Escape The Fate - My Apocolypse - таба, видео

Регистрация Запомнить меня
Войти через:  Facebook Google Twitter Vk Yandex Mail.ru

Escape The Fate - My Apocolypse - таба, видео

Печатать
Просмотров: 204
Уроки эстрадного вокала в Санкт-Петербурге
My Apocalypse
Escape the Fate
Dying Is Your Latest Fashion

=-=-=-=-=-=-=-=-=-
RHYTHM GUITAR
=-=-=-=-=-=-=-=-=-
Drop C Tuning

INTRO
D|-----------0--0--0-0--------------------------0--0---|
A|-----------8--8--8-8-----------------------0--0--0---|
F|-----9-----9--9--9-9-------9-----9----9----9--9--9---|
C|-----7-----7--7--7-7------10----10---10---10-10-10---|
G|--0--0--0--0--0--0-0---8---8--8--8----8----8--8--8---|
C|-----------------------------------------------------|

|-----------------------------------------|
|-----------8-8---8-8h10p8----------------|
|-----9-----9-9---9-9------9----9---------|
|-----7-----7-7---7-7------7---10-x9------|
|--0--0--0--0-0---0-0------0----8---------|
|-----------------------------------------|

CHORUS
|----------------------------------------------------------|
|----------------------------------------------------------|
|--2------2-------------5------2------2--------------------|
|--2-x8---2-x8---3------5-x8---2-x8---2-x8---3------0------|X2
|--0------0------3-x8---3------0------0------3-x8---0-x8---|
|----------------3---------------------------3------0------|

VERSE

Repeat Intro Then Play..

|--------------------------------------------------|
|--20----20----20----20----20----20----17----------|
|-----17----17----17----17----17----17----17----17-|
|--------------------------------------------19----|X4
|--------------------------------------------------|
|--------------------------------------------------|

PRE CHORUS
|--------------------------------------------------|
|--------------------------------------------------|
|--2-2---2-2---------5-5---2-2---2-2---------------|
|--2-2---2-2---3-3---5-5---2-2---2-2---3-3---0-0---|
|--0-0---0-0---3-3---3-3---0-0---0-0---3-3---0-0---|
|--------------3-3---------------------3-3---0-0---|

CHORUS								END
|----------------------------------------------------------|   |----|
|----------------------------------------------------------|   |----|
|--2------2-------------5------2------2--------------------|   |----|
|--2-x8---2-x8---3------5-x8---2-x8---2-x8---3------0------|X2 |-3~-|
|--0------0------3-x8---3------0------0------3-x8---0-x8---|   |-3~-|
|----------------3---------------------------3------0------|   |-3~-|

VERSE
Couple Bars of Drums and Bass then guitar kicks in

|-----------------------------------------------------------------------|
|--8--8--8--8--8--8--8-8-8----------------------------------------------|
|--9--9--9--9--9--9--9-9-9---9----9--9--9----9--9-----------------------|
|--7--7--7--7--7--7--7-7-7--10---10-10-10---10-10-10---10-10-10--10-10--|
|--7--7--7--7--7--7--7-7-7---8----8--8--8----8--8-10---10-10-10--10-10--|
|--7--7--7--7--7--7--7-7-7------------------------10---10-10-10--10-10--|

|-----------------------------------------------------------------------|
|--8--8--8--8--8--8--8-8-8----------------------------------------------|
|--9--9--9--9--9--9--9-9-9---9----9--9--9----9--9-----------------------|
|--7--7--7--7--7--7--7-7-7--10---10-10-10---10-10-0---0-0-0---0-0-0--3~-|
|--7--7--7--7--7--7--7-7-7---8----8--8--8----8--8-0---0-0-0---0-0-0--3~-|
|--7--7--7--7--7--7--7-7-7------------------------0---0-0-0---0-0-0--3~-|

PRE CHORUS
|--------------------------------------------------|
|--------------------------------------------------|
|--2-2---2-2---------5-5---2-2---2-2---------------|
|--2-2---2-2---3-3---5-5---2-2---2-2---3-3---0-0---|
|--0-0---0-0---3-3---3-3---0-0---0-0---3-3---0-0---|
|--------------3-3---------------------3-3---0-0---|

CHORUS
|----------------------------------------------------------|
|----------------------------------------------------------|
|--2------2-------------5------2------2--------------------|
|--2-x8---2-x8---3------5-x8---2-x8---2-x8---3------0------|X2
|--0------0------3-x8---3------0------0------3-x8---0-x8---|
|----------------3---------------------------3------0------|

BRIDGE
|---------------------------------------------------------------------------------------|
|--6---6---6--6--6-6---3---3---3--3--3-3---10---10---10--10--10-10---8---8---8--8--8-8--|
|--5---5---5--5--5-5---2---2---2--2--2-2----9----9----9---9---9--9---8---7---7--7--7-7--|
|--3---3---3--3--3-3---0---0---0--0--0-0----7----7----7---7---7--7---5---5---5--5--5-5--|
|--3---3---3--3--3-3---0---0---0--0--0-0----7----7----7---7---7--7---5---5---5--5--5-5--|
|--3---3---3--3--3-3---0---0---0--0--0-0----7----7----7---7---7--7---5---5---5--5--5-5--|
 Repeat this until the fast solo kicks in then continue


|--------------------------------------------------|
|--------------------------------------------------|
|--------------------------------------------------|
|--3--3--3--3--3--3--3--3--0--0--0--0--0--0--0--0--|
|--3--3--3--3--3--3--3--3--0--0--0--0--0--0--0--0--|
|--3--3--3--3--3--3--3--3--0--0--0--0--0--0--0--0--|
     THEN
|--------------------------------------------------|
|--------------------------------------------------|
|--------------------------------------------------|
|--7--7--7--7--7--7--7--7--5--5--5--5--5--5--5--5--|
|--7--7--7--7--7--7--7--7--5--5--5--5--5--5--5--5--|
|--7--7--7--7--7--7--7--7--5--5--5--5--5--5--5--5--|

SOLO
|--8-5-8-5-7-5-5-7-5-5-7-0-5-0-5-0--8-5-8-5-7-5-5-7-5-5-7-0-5-0-5-0--|
|--------------------------------------------------------------------|
|--------------------------------------------------------------------|
|--------------------------------------------------------------------|
|--------------------------------------------------------------------|
|--------------------------------------------------------------------|

|--8-5-8-5-7-5-5-7-5-5-7-0-5-0-5-0--8-5-8-5-7-5-5-7-5-5-7-0-5-0-5-0--|
|--------------------------------------------------------------------|
|--------------------------------------------------------------------|
|--------------------------------------------------------------------|
|--------------------------------------------------------------------|
|--------------------------------------------------------------------|

|--/13-0-12-0-8-0-7-0-8-0-7-0-5-0-7-0--/13-0-12-8-0-7-0-8-0-7-0-5-0-7-0--|
|------------------------------------------------------------------------|
|------------------------------------------------------------------------|
|------------------------------------------------------------------------|
|------------------------------------------------------------------------|
|------------------------------------------------------------------------|

|--/13-0-12-0-8-0-7-0-8-0-7-0-5-0-7-0--8-0-0-7-0-0-5-0-7-0-0-5-7-5----|
|------------------------------------------------------------------5--|
|---------------------------------------------------------------------|
|---------------------------------------------------------------------|
|---------------------------------------------------------------------|
|---------------------------------------------------------------------|

|--/20----20----19----19------------------------------
|---------------------------20----20----17----17------
|------17----17----17----17----17----17----17----17---
|-----------------------------------------------------
|-----------------------------------------------------
|-----------------------------------------------------
Play this the Rest of the song then end on this

|-20~-|
|-----|
|-----|
|-----|
|-----|
|-----|


=-=-=-=-=-=-=-=-=-=-
LEAD GUITAR
=-=-=-=-=-=-=-=-=-=-
Drop C Tuning

Only rhythm guitar plays during the intro.
Lead kicks in at the first chorus right
after the intro

CHORUS
|--15-0------15-0------15-0------15-0----------------15-0----------------------------|
|-------13-0------13-0------13-0------13-0-10-0-13-0------13-0-13-15-13-12-12-13-12~-|
|------------------------------------------------------------------------------------|
|------------------------------------------------------------------------------------|
|------------------------------------------------------------------------------------|
|------------------------------------------------------------------------------------|

|-------15-0------15-0------15-0------15-0-----------15-0----------------------------|
|--13-0------13-0------13-0------13-0------10-0-13-0------13-0--13-15-13-15/17~~-----|
|------------------------------------------------------------------------------------|
|------------------------------------------------------------------------------------|
|------------------------------------------------------------------------------------|
|------------------------------------------------------------------------------------|

|--15-0------15-0------15-0------15-0----------------15-0----------------------------|
|-------13-0------13-0------13-0------13-0-10-0-13-0------13-0-13-15-13-12-12-13-12~-|
|------------------------------------------------------------------------------------|
|------------------------------------------------------------------------------------|
|------------------------------------------------------------------------------------|
|------------------------------------------------------------------------------------|

|-----15-0------15-0------15-0------15-0-----------15-0-------------------------------------------|
|13-0------13-0------13-0------13-0------10-0-13-0------13-0--13-15-13-12-12-13-12~--13~~--12~~-10|
|-------------------------------------------------------------------------------------------------|
|-------------------------------------------------------------------------------------------------|
|-------------------------------------------------------------------------------------------------|
|-------------------------------------------------------------------------------------------------|

VERSE
Rhythm plays the pretty little melody during the Verses.
I usually tremolo pick down the fretboard at the end of
the verse, like so..

C|--16-15-14-13-12-11-10-9-8-7-6-5-4-3-2-1--|

PRE CHORUS
|--------------------------------------------------|
|--------------------------------------------------|
|--2-2---2-2---------5-5---2-2---2-2---------------|
|--2-2---2-2---3-3---5-5---2-2---2-2---3-3---0-0---|
|--0-0---0-0---3-3---3-3---0-0---0-0---3-3---0-0---|
|--------------3-3---------------------3-3---0-0---|

CHORUS
|--15-0------15-0------15-0------15-0----------------15-0----------------------------|
|-------13-0------13-0------13-0------13-0-10-0-13-0------13-0-13-15-13-12-12-13-12~-|
|------------------------------------------------------------------------------------|
|------------------------------------------------------------------------------------|
|------------------------------------------------------------------------------------|
|------------------------------------------------------------------------------------|

|-------15-0------15-0------15-0------15-0-----------15-0----------------------------|
|--13-0------13-0------13-0------13-0------10-0-13-0------13-0--13-15-13-15/17~~-----|
|------------------------------------------------------------------------------------|
|------------------------------------------------------------------------------------|
|------------------------------------------------------------------------------------|
|------------------------------------------------------------------------------------|

|--15-0------15-0------15-0------15-0----------------15-0----------------------------|
|-------13-0------13-0------13-0------13-0-10-0-13-0------13-0-13-15-13-12-12-13-12~-|
|------------------------------------------------------------------------------------|
|------------------------------------------------------------------------------------|
|------------------------------------------------------------------------------------|
|------------------------------------------------------------------------------------|


|-------15-0------15-0------15-0------15-0-----------15-0----------------------------|----|
|--13-0------13-0------13-0------13-0------10-0-13-0------13-0--13-15-13-12-12-13-12~|----|
|------------------------------------------------------------------------------------|----|
|------------------------------------------------------------------------------------|-3~-|
|------------------------------------------------------------------------------------|-3~-|
|------------------------------------------------------------------------------------|-3~-|

VERSE
Couple Bars of Drums and Bass then guitar kicks in

|--------------------------------------------------------|
|--------------------------------------------------------|
|--2--2--2--2--2--2--2-2-2----------------5--5-5-5--5-5--|
|--2--2--2--2--2--2--2-2-2-3~--3-3-3--3-3-5--5-5-5--5-5--|
|--0--0--0--0--0--0--0-0-0-3~--3-3-3--3-3-3--3-3-3--3-3--|
|--------------------------3~--3-3-3--3-3----------------|

|--------------------------------------------------------|----|
|--------------------------------------------------------|----|
|--2--2--2--2--2--2--2-2-2-------------------------------|----|
|--2--2--2--2--2--2--2-2-2-3~--3-3-3--3-3-0--0-0-0--0-0--|-3~-|
|--0--0--0--0--0--0--0-0-0-3~--3-3-3--3-3-0--0-0-0--0-0--|-3~-|
|--------------------------3~--3-3-3--3-3-0--0-0-0--0-0--|-3~-|

PRE CHORUS
|--------------------------------------------------|
|--------------------------------------------------|
|--2-2---2-2---------5-5---2-2---2-2---------------|
|--2-2---2-2---3-3---5-5---2-2---2-2---3-3---0-0---|
|--0-0---0-0---3-3---3-3---0-0---0-0---3-3---0-0---|
|--------------3-3---------------------3-3---0-0---|

CHORUS
|--15-0------15-0------15-0------15-0----------------15-0----------------------------|
|-------13-0------13-0------13-0------13-0-10-0-13-0------13-0-13-15-13-12-12-13-12~-|
|------------------------------------------------------------------------------------|
|------------------------------------------------------------------------------------|
|------------------------------------------------------------------------------------|
|------------------------------------------------------------------------------------|

|-------15-0------15-0------15-0------15-0-----------15-0----------------------------|
|--13-0------13-0------13-0------13-0------10-0-13-0------13-0--13-15-13-15/17~~-----|
|------------------------------------------------------------------------------------|
|------------------------------------------------------------------------------------|
|------------------------------------------------------------------------------------|
|------------------------------------------------------------------------------------|

|--15-0------15-0------15-0------15-0----------------15-0----------------------------|
|-------13-0------13-0------13-0------13-0-10-0-13-0------13-0-13-15-13-12-12-13-12~-|
|------------------------------------------------------------------------------------|
|------------------------------------------------------------------------------------|
|------------------------------------------------------------------------------------|
|------------------------------------------------------------------------------------|


|-------15-0------15-0------15-0------15-0-----------15-0----------------------------|
|--13-0------13-0------13-0------13-0------10-0-13-0------13-0--13-15-13-12-12-13-12~|
|------------------------------------------------------------------------------------|
|------------------------------------------------------------------------------------|
|------------------------------------------------------------------------------------|
|------------------------------------------------------------------------------------|

BRIDGE
Hold Each Note About 3 Seconds
|------------------------------------------------------------------------------------|
|--13~--12~--10~--12~--13~--15~--12~--10~--13~--12~--10~--12~--13~--15~--12~--10~~---|
|------------------------------------------------------------------------------------|
|------------------------------------------------------------------------------------|
|------------------------------------------------------------------------------------|
|------------------------------------------------------------------------------------|

SOLO

Slow tapping 
|--12-5-7-8--12-5-7-8--13-5-7-8--13-5-7-8--10-5-7-8--10-5-7-8--15-5-7-8--17-5-7-8--|
|----------------------------------------------------------------------------------|
|----------------------------------------------------------------------------------|
|----------------------------------------------------------------------------------|
|----------------------------------------------------------------------------------|
|----------------------------------------------------------------------------------|

Moderate tapping
|--12-5-7-8-x4---13-5-7-8-x4--10-5-7-8-x4--15-5-7-8-x2--17-5-7-8--17~-|
|---------------------------------------------------------------------|
|---------------------------------------------------------------------|
|---------------------------------------------------------------------|
|---------------------------------------------------------------------|
|---------------------------------------------------------------------|

Fast tapping
|--12-5-7-8-x8--13-5-7-8-x8--10-5-7-8-x8--15-5-7-8-x4--17-5-7-8-x4----|
|---------------------------------------------------------------------|
|---------------------------------------------------------------------|
|---------------------------------------------------------------------|
|---------------------------------------------------------------------|


|--12-5-7-8--13-5-7-8--12-5-7-8--15-5-7-8--13-5-7-8--17-5-7-8--15-5-7-8--17-5-7-8--|
|----------------------------------------------------------------------------------|
|----------------------------------------------------------------------------------|
|----------------------------------------------------------------------------------|X3
|----------------------------------------------------------------------------------|then
|----------------------------------------------------------------------------------|
|----------------------------------------------------------------------------------|
						      
|--12-5-7-8--13-5-7-8--12-5-7-8--15-5-7-8--13-5-7-8--17---17~~---------------------|
|----------------------------------------------------------------------------------|
|----------------------------------------------------------------------------------|
|----------------------------------------------------------------------------------|
|----------------------------------------------------------------------------------|
|----------------------------------------------------------------------------------|
|----------------------------------------------------------------------------------|

|--------------------------------------------------|
|--------------------------------------------------|
|--------------------------------------------------|
|--3--3--3--3--3--3--3--3--0--0--0--0--0--0--0--0--|
|--3--3--3--3--3--3--3--3--0--0--0--0--0--0--0--0--|
|--3--3--3--3--3--3--3--3--0--0--0--0--0--0--0--0--|

|--------------------------------------------------|
|--------------------------------------------------|
|--------------------------------------------------|
|--7--7--7--7--7--7--7--7--5--5--5--5--5--5--5--5--|
|--7--7--7--7--7--7--7--7--5--5--5--5--5--5--5--5--|
|--7--7--7--7--7--7--7--7--5--5--5--5--5--5--5--5--|

Play these two chord progressions till the end of the song then
end on this

|----|
|----|
|----|
|-3~-|
|-3~-|
|-3~-|

Let it fade out then your done : ]
Enjoy!
Добавлено: 17.05.2012
Другие материалы по этой песне:
  • Аккорды и текст

Страница создана 17.05.2012
http://primanota.ru/escape-the-fate/my-apocolypse-chords.htm
Привет, Гость.
Предлагаем пройти революционный курс по гитаре.
Подарок от PrimaNota.Ru, забирай!