PrimaNota.ru - самый крупный в мире бесплатный архив песенных текстов, аккордов, табулатур и нот


Escape The Fate - Live For Today - таба, видео

Регистрация Запомнить меня
Войти через:  Facebook Google Twitter Vk Yandex Mail.ru

Escape The Fate - Live For Today - таба, видео

Печатать
Просмотров: 173
-------------------------------------------------------------------------------
                             Live For Today - Escape The Fate
-------------------------------------------------------------------------------
Tabbed by: Andy Morris
E-mail: Barnacals@gmail.com

You can view my cover here https://www.youtube.com/watch?v=psbd6_x3auE

Tuning:Drop C


Intro/Verse:

C|--------------------------------------------|
G|--------------------------------------------|
C|--------------------------------------------|
F|--4-4---4------444-4---4---4-7--------------|
A|--4-4---4------444-4---4---4-7--------------|
D|--4-4---4------444-4---4---4-7--------------|
    .            ...         .
C|--------------------------------------------|
G|--------------------------------------------|
C|--------------------------------------------|
F|--4-4---4------444-4---4-7-6-4-2------------|
A|--4-4---4------444-4---4-7-6-4-2------------|
D|--4-4---4------444-4---4-7-6-4-2------------|
    .            ...       . . . .
C|--------------------------------------------|
G|--------------------------------------------|
C|--------------------------------------------|
F|--0-0---0------000-0---0---0-2--------------|
A|--0-0---0------000-0---0---0-2--------------|
D|--0-0---0------000-0---0---0-2--------------|
    .            ...         .
C|--------------------------------------------|
G|--------------------------------------------|
C|--------------------------------------------|
F|--4-4---4------444-4---4-7--9---------------|
A|--4-4---4------444-4---4-7--9---------------|
D|--4-4---4------444-4---4-7--9---------------| Repeat all x3
    .            ...     .

Chorus:

C|--------------------------------------------|
G|--------------------------------------------|
C|--------------------------------------------|
F|--4------0------7------2--------------------|
A|--4(x16)-0(x16)-7(x16)-2(x16)---------------|
D|--4------0------7------2--------------------|

Verse 2:

C|--------------------------------------------|
G|--------------------------------------------|
C|--------------------------------------------|
F|--4-4---4------444-4---4---4-7--------------|
A|--4-4---4------444-4---4---4-7--------------|
D|--4-4---4------444-4---4---4-7--------------| x2
    .            ...         .

C|--------------------------------------------|
G|--------------------------------------------|
C|--------------------------------------------|
F|--4-4---4------444-4---4-7-6-4-2------------|
A|--4-4---4------444-4---4-7-6-4-2------------|
D|--4-4---4------444-4---4-7-6-4-2------------|
    .            ...       . . . .
C|--------------------------------------------|
G|--------------------------------------------|
C|--------------------------------------------|
F|--0-0---0------000-0---0---0-2--------------|
A|--0-0---0------000-0---0---0-2--------------|
D|--0-0---0------000-0---0---0-2--------------|
    .            ...         .
C|--------------------------------------------|
G|--------------------------------------------|
C|--------------------------------------------|
F|--4-4---4------444-4---4-7--9---------------|
A|--4-4---4------444-4---4-7--9---------------|
D|--4-4---4------444-4---4-7--9---------------|
    .            ...     .

Chorus 2:

C|-------------------------------------| |-----|
G|-------------------------------------| |-----|
C|-------------------------------------| |-----|
F|--4------0------7------2-------------| |--4--|
A|--4(x16)-0(x16)-7(x16)-2(x16)--------| |--4--|
D|--4------0------7------2-------------| |--4--|
                                         Second time end on:

Interlude:

C|------------------------------------------------------------------|
G|------------------------------------------------------------------|
C|------------------------------------------------------------------|
F|--4------------4-----------------0---------2----------------------|
A|--4------------4-----------------0---------2----------------------|
D|--4------------4-----------------0---------2----------------------|
    My life is - You're the only - Falling - Falling -
C|------------------------------------------------------------------|
G|------------------------------------------------------------------|
C|------------------------------------------------------------------|
F|--4------------0-----------------7------2-------------------------|
A|--4------------0-----------------7(x16)-2(x16)---(repeat chorus)--|
D|--4------------0-----------------7------2-------------------------|
    I'll never -    Forget about -

Solo: (Feel free to help out on that one. It's a bit hard to hear in the background)

************************************

| /   slide up
| \   slide down
| h   hammer-on
| p   pull-off
| ~   vibrato
| +   harmonic
| x   Mute note
| b   Bend
| pb  Pre-bend
| br  Bend release
| pbr Pre-bend release
| brb Bend release bend
| .   Palm Mute

************************************
Добавлено: 28.05.2016
Вам также может быть интересно:
Другие материалы по этой песне:
  • Аккорды и текст

Страница создана 28.05.2016
http://primanota.ru/escape-the-fate/live-for-today-chords.htm
Привет, Гость.
Предлагаем пройти революционный курс по гитаре.
Подарок от PrimaNota.Ru, забирай!