PrimaNota.ru - самый крупный в мире бесплатный архив песенных текстов, аккордов, табулатур и нот


Escape The Fate - Liars And Monsters - текст песни, таба, бас-таба, видео

Регистрация Запомнить меня
Войти через:  Facebook Google Twitter Vk Yandex Mail.ru

Escape The Fate - Liars And Monsters - текст песни, таба, бас-таба, видео

Печатать
Просмотров: 185
                    Liars and Monsters - Escape the Fate

Everything's here, Tuning is Drop C (CGCFAD), enjoy!

Intro x4: all 0's are palm muted
D|------------------------------------------------------------------|
A|------------------------------------------------------------------|
F|------------------------------------------------------------------|
C|------------------------------------------------------------------|
G|------------------------------------------------------------------|
C|-0--15-12--0--12h13--0--13--0--13p12--0--10h12--0--12--0--12p10---|


D|-------------------------------------|
A|-------------------------------------|
F|-------------------------------------|
C|-------------------------------------|
G|-------------------------------------|
C|-0--8h10--0--10--0--10p8--0--8--7~---|


Verse x4:
D|--------------------------------|
A|--------------------------------|
F|--------------------------------|
C|-0--0----1--1---0--0------3~----|
G|-0--0----1--1---0--0------3~----|
C|-0--0----1--1---0--0------3~----|


Prechorus:
D|---------------|
A|---------------|
F|---------------|
C|-3----3----3---|
G|-3----3----3---|
C|-3----3----3---|


Chorus x4:
D|---------------------------------------------------------------------|
A|----------------------------------------------------------------xxx--|
F|----------------------------------------------------------------xxx--|
C|-0---0---0---0---0---0---0---0---3---3---3---3---1---1---1---1--xxx--|
G|-0---0---0---0---0---0---0---0---3---3---3---3---1---1---1---1--xxx--|
C|-0---0---0---0---0---0---0---0---3---3---3---3---1---1---1---1-------|

Then back to the Intro x2
Then the verse
Then Prechorus
Then the Chorus again

Bridge: do this just once
D|--------------------------------------------------------------------|
A|--------------------------------------------------------------------|
F|--------------------------------------------------------------------|
C|-12-12--11-11--8-8--7-7--12--12-12--11-11-11-11--8-8-8-8--7-7-7-----|
G|-12-12--11-11--8-8--7-7--12--12-12--11-11-11-11--8-8-8-8--7-7-7-----|
C|-12-12--11-11--8-8--7-7--12--12-12--11-11-11-11--8-8-8-8--7-7-7-----|

gtr 2
D|--------------------------------------------------------------------|
A|--------------------------------------------------------------------|
F|--------------------------------------------------------------------|
C|-12-12--11-11--8-8--7-7--12--12-12--11-11-11-11--8-8-8-8--7-7-7-----|
G|-12-12--11-11--8-8--7-7--12--12-12--11-11-11-11--8-8-8-8--7-7-7-----|
C|-12-12--11-11--8-8--7-7--12--12-12--11-11-11-11--8-8-8-8--7-7-7-----|

gtr 1
D|--------------------------------------------------------------------|
A|--------------------------------------------------------------------|
F|--------------------------------------------------------------------|
C|-------------------------12-12-12-12-14-14-14-14-15-15-15-15-17~----|
G|--------------------------------------------------------------------|
C|--------------------------------------------------------------------|


Soloish thing:
gtr 1
D|-13-13--12-12---------------13--13-13--12-12-12-12-------------------|
A|---------------15-15--14-14-------------------------15-15-15-15--14~-|
F|---------------------------------------------------------------------|
C|---------------------------------------------------------------------|
G|---------------------------------------------------------------------|
C|---------------------------------------------------------------------|

gtr 2
D|---------------------------------------------------------------------|
A|-15-15--14-14---------------15--15-15--14-14-14-14-------------------|
F|---------------15-15--14-14-------------------------15-15-15-15--14~-|
C|---------------------------------------------------------------------|
G|---------------------------------------------------------------------|
C|---------------------------------------------------------------------|

gtr 3
D|---------------------------------------------------------------------|
A|---------------------------------------------------------------------|
F|---------------------------------------------------------------------|
C|-12-12--11-11---8-8---7-7---12--12-12---11-11-11-11--8-8-8-8--7-7-7--|
G|-12-12--11-11---8-8---7-7---12--12-12---11-11-11-11--8-8-8-8--7-7-7--|
C|-12-12--11-11---8-8---7-7---12--12-12---11-11-11-11--8-8-8-8--7-7-7--|


gtr 1
D|-13-13--12-12----------------|
A|---------------15-15--14-14--|
F|-----------------------------|
C|-----------------------------|
G|-----------------------------|
C|-----------------------------|

gtr 2
D|-----------------------------|
A|-15-15--14-14----------------|
F|---------------15-15--14-14--|
C|-----------------------------|
G|-----------------------------|
C|-----------------------------|


gtr 3
D|-----------------------------|
A|-----------------------------|
F|-----------------------------|
C|-12-12--11-11---8-8---7-7----|
G|-12-12--11-11---8-8---7-7----|
C|-12-12--11-11---8-8---7-7----|


gtr 1
D|-13-13-13-13-15-15-15-15-17-17-17-17-18-18-18\15~----|
A|-----------------------------------------------------|
F|-----------------------------------------------------|
C|-----------------------------------------------------|
G|-----------------------------------------------------|
C|-----------------------------------------------------|


D|-----------------------------------------------------|
A|-15-------15-14-------14-----------------------------|
F|-------------------------15-------15-14----14/15~----|
C|-----------------------------------------------------|
G|-----------------------------------------------------|
C|-----------------------------------------------------|


D|-----------------------------------------------------|
A|-----------------------------------------------------|
F|-----------------------------------------------------|
C|-12-12-12-12-11-11-11-11-8--8--8--8--7--7--7--5~-----|
G|-12-12-12-12-11-11-11-11-8--8--8--8--7--7--7--5~-----|
C|-12-12-12-12-11-11-11-11-8--8--8--8--7--7--7--5~-----|


Postsolo
D|-5~-----------------0-----|
A|-6~-----------------------|
F|-7~-----------------------|
C|-8~-----------------------|
G|--------------------------|
C|--------------------------|

Back to the Chorus for the last time!
Then end with the intro as the outro

End like this: all 0's are pm
D|-----------------------------------|
A|-----------------------------------|
F|-----------------------------------|
C|-----------------------------------|
G|-----------------------------------|
C|-0--8h10--0--10--0--10p8-0-000-----|


That's it! Anything you need, email me at zekai_a7x@hotmail.com
Добавлено: 26.06.2012
Другие материалы по этой песне:

Страница создана 21.02.2012
http://primanota.ru/escape-the-fate/liars-and-monsters-chords.htm
Привет, Гость.
Предлагаем пройти революционный курс по гитаре.
Подарок от PrimaNota.Ru, забирай!