PrimaNota.ru - самый крупный в мире бесплатный архив песенных текстов, аккордов, табулатур и нот


Escape The Fate - Guillotine - аккорды и текст, таба, бас-таба, драм-таба, видео

Регистрация Запомнить меня
Войти через:  Facebook Google Twitter Vk Yandex Mail.ru

Escape The Fate - Guillotine - аккорды и текст, таба, бас-таба, драм-таба, видео

Печатать
Просмотров: 486
Guillotine
Escape The Fate
Tabbing out of chords will be on top. Lyrics with chords will be in middle. Chord progressions by themselves 
will be on bottom. Outro is a slowed down form of the pre-chorus. Hope it all works out well. My apologies if
the chords seem frantic or weirdly placed, but I advise to listen to one of the lyric videos for timing
purposes. x means Palm Mute or Muted Strings. ~ means Extended or Held Notes.

Chords Tabbed Out
------------------------------------------------------------------------------

Intro:    E  E  C          D
       e|--------------------------|
       B|--------------------------|
       G|-------5~-5-5-5-5-7-7-7-7-|
       D|-2~-2~-5~-5-5-5-5-7-7-7-7-|
       A|-2~-2~-3~-3-3-3-3-5-5-5-5-|
       E|-0~-0~--------------------|

Verse:    E                 C        D
       e|-------------------------------------|
       B|-------------------------------------|
       G|-------------------555-x-55-777-x-77-| X4
       D|-222-x-222-xx-2222-555-x-55-777-x-77-|
       A|-222-x-222-xx-2222-333-x-33-555-x-55-|
       E|-000-x-000-xx-0000-------------------|

Pre-Chorus:    C      D            E      G    F#
            e|-----------------------------------------|
            B|-----------------------------------------|
            G|-555~-x-777~-777-777---------------------| X2
            D|-555~-x-777~-777-777-222~-x-555~-444-444-|
            A|-333~-x-555~-555-555-222~-x-555~-444-444-|
            E|---------------------000~-x-333~-222-222-|

Chorus:    C       D       E
        e|----------------------------------|
        B|----------------------------------|
        G|-5-5-5-5-7-7-7-7------------------| X2
        D|-5-5-5-5-7-7-7-7-2222222222222222-|
        A|-3-3-3-3-5-5-5-5-2222222222222222-|
        E|-----------------0000000000000000-|

           G       A       C
        e|----------------------------------|
        B|----------------------------------|
        G|-----------------5555555555555555-|
        D|-5-5-5-5-7-7-xxx-5555555555555555-|
        A|-5-5-5-5-7-7-xxx-3333333333333333-|
        E|-3-3-3-3-5-5-xxx------------------|

           C       D       C
        e|------------------------------------|
        B|------------------------------------|
        G|-5-5-5-5-7-7-7-7-555-555-555-555-5~-|
        D|-5-5-5-5-7-7-7-7-555-555-555-555-5~-|
        A|-3-3-3-3-5-5-5-5-333-333-333-333-3~-|
        E|------------------------------------|

Verse:    E                 C        D
       e|-------------------------------------|
       B|-------------------------------------|
       G|-------------------555-x-55-777-x-77-| X4
       D|-222-x-222-xx-2222-555-x-55-777-x-77-|
       A|-222-x-222-xx-2222-333-x-33-555-x-55-|
       E|-000-x-000-xx-0000-------------------|

Pre-Chorus:    C      D            E      G    F#
            e|-----------------------------------------|
            B|-----------------------------------------|
            G|-555~-x-777~-777-777---------------------| X2
            D|-555~-x-777~-777-777-222~-x-555~-444-444-|
            A|-333~-x-555~-555-555-222~-x-555~-444-444-|
            E|---------------------000~-x-333~-222-222-|

Chorus:    C       D       E
        e|----------------------------------|
        B|----------------------------------|
        G|-5-5-5-5-7-7-7-7------------------| X2
        D|-5-5-5-5-7-7-7-7-2222222222222222-|
        A|-3-3-3-3-5-5-5-5-2222222222222222-|
        E|-----------------0000000000000000-|

           G       A       C
        e|----------------------------------|
        B|----------------------------------|
        G|-----------------5555555555555555-|
        D|-5-5-5-5-7-7-xxx-5555555555555555-|
        A|-5-5-5-5-7-7-xxx-3333333333333333-|
        E|-3-3-3-3-5-5-xxx------------------|

           C       D       E
        e|--------------------|
        B|--------------------|
        G|-5-5-5-5-7-7-7-7----|
        D|-5-5-5-5-7-7-7-7-2~-|
        A|-3-3-3-3-5-5-5-5-2~-|
        E|-----------------0~-|

Solo:    E  E  C     D
      e|----------------|
      B|----------------|
      G|-------5~-5~-7~-| X3
      D|-2~-2~-5~-5~-7~-|
      A|-2~-2~-3~-3~-5~-|
      E|-0~-0~----------|

         G        F#       E        C
      e|-------------------------------------|
      B|-------------------------------------|
      G|----------------------------5-5-5-5~-| X2
      D|-5-5-5-5~-4-4-4-4~-2-2-2-2~-5-5-5-5~-|
      A|-5-5-5-5~-4-4-4-4~-2-2-2-2~-3-3-3-3~-|
      E|-3-3-3-3~-2-2-2-2~-0-0-0-0~----------|

Chorus:    C       D       E
        e|----------------------------------|
        B|----------------------------------|
        G|-5-5-5-5-7-7-7-7------------------| X2
        D|-5-5-5-5-7-7-7-7-2222222222222222-|
        A|-3-3-3-3-5-5-5-5-2222222222222222-|
        E|-----------------0000000000000000-|

           G       A       C
        e|----------------------------------|
        B|----------------------------------|
        G|-----------------5555555555555555-|
        D|-5-5-5-5-7-7-xxx-5555555555555555-|
        A|-5-5-5-5-7-7-xxx-3333333333333333-|
        E|-3-3-3-3-5-5-xxx------------------|

           C       D       E
        e|--------------------|
        B|--------------------|
        G|-5-5-5-5-7-7-7-7----|
        D|-5-5-5-5-7-7-7-7-2~-|
        A|-3-3-3-3-5-5-5-5-2~-|
        E|-----------------0~-| 

Outro:    C      D            E      G    F#
       e|-----------------------------------------|
       B|-----------------------------------------|
       G|-555~-x-777~-777-777---------------------| Repeat until fade
       D|-555~-x-777~-777-777-222~-x-555~-444-444-|
       A|-333~-x-555~-555-555-222~-x-555~-444-444-|
       E|---------------------000~-x-333~-222-222-|

Lyrics With Chords
------------------------------------------------------------------------------------

Intro:             E         E
       So lock and load mercenaries

                 C                                  D
       I see the smoke from the hilltop. They march one by one.

Verse: E                  C              D           
       The battle starts, adversaries we bathe in our

       E                   C   D
       blood. The worst is yet to 

       E                                   C                 D
       come. We've reached the covenant to kill what we have started.

       E                                   C            D          
       Kill the machines. We've spawned to fight in the darkest

Pre-Chorus: C     D                     E     G    F#
            hour.   They really need to know.   We really gotta

            C                D                  E                      G             F#
            go. (We fight to live, we fight for pride). (We won't back down the weak won't survive)

Chorus: C           D      E                                      
        Please stay here tonight (Don't let them find us or we're dead)

        C              D              E
        Promise me you won't leave my side (The warmest place to lie my head)

        G            A               C
        And when the sun comes up we fight (Don't let them find us or we're dead)

        C                 D              C
        So promise me you won't leave my side. Trace the blood back to the grave

Verse: E                      C                 D
       The smoke has cleared. Thousands are destroyed

       E                 C     D
       They send signals no salvation

       E                     C                 D
       We fight in lock out. Scope is ready to go

       E                      C        D
       Armed with explosives, Spartans stand 

Pre-Chorus: C      D                     E     G    F#
            alone.   They really need to know.   We really gotta

            C                D                  E                      G             F#
            go. (We fight to live, we fight for pride). (We won't back down the weak won't survive)

Chorus: C           D      E                                      
        Please stay here tonight (Don't let them find us or we're dead)

        C              D              E
        Promise me you won't leave my side (The warmest place to lie my head)

        G            A               C
        And when the sun comes up we fight (Don't let them find us or we're dead)

        C                 D              E
        So promise me you won't leave my side.

Solo Chords: (E| E| C| C D|) X3 

             (G| F#| E| C|) X2

Chorus: C           D      E                                      
        Please stay here tonight (Don't let them find us or we're dead)

        C              D              E
        Promise me you won't leave my side (The warmest place to lie my head)

        G            A               C
        And when the sun comes up we fight (Don't let them find us or we're dead)

        C                 D              E
        So promise me you won't leave my side.

Outro: C          D          E             G F#   C         D               E        G   F#
       Charge the gates with rust on their gears. They seek destruction and kill the functions

       C          D          E             G F#   C         D               E        G   F#
       Charge the gates with rust on their gears. They seek destruction and kill the functions

       C          D          E             G F#   C         D               E        G   F#
       Charge the gates with rust on their gears. They seek destruction and kill the functions

Repeat until fade

Chord Progressions
----------------------------------------------------------------------------------------------
Intro: (E| E| C| D|)
Verse: (E| C D| E| C D|) X4
Pre-Chorus: (C| D| E| G| F#|) X2
Chorus: (C| D| E|) X2
        (G| A| C|)
        (C| D| C|)
Verse: (E| C D| E| C D|) X4
Pre-Chorus: (C| D| E| G| F#|) X2
Chorus: (C| D| E|) X2
        (G| A| C|)
        (C| D| E|)
Solo: (E| E| C| C D|) X3
      (G| F#| E| C|) X2
Chorus: (C| D| E|) X2
        (G| A| C|)
        (C| D| E|)
Outro: (C| D| E| G F#|) repeat until fade
Добавлено: 28.05.2016
Другие материалы по этой песне:

Страница создана 22.02.2012
http://primanota.ru/escape-the-fate/guillotine-chords.htm
Привет, Гость.
Предлагаем пройти революционный курс по гитаре.
Подарок от PrimaNota.Ru, забирай!