PrimaNota.ru - самый крупный в мире бесплатный архив песенных текстов, аккордов, табулатур и нот


Escape The Fate - Desire - таба, видео

Регистрация Запомнить меня
Войти через:  Facebook Google Twitter Vk Yandex Mail.ru

Escape The Fate - Desire - таба, видео

Печатать
Просмотров: 160
----------------------------------------------------------------------------
                             Desire
                          Escape the Fate
----------------------------------------------------------------------------

Escape The Fate just keeps growing and growing. I am very impressed by this album and it 
has sentimental value since I listen to it constantly in class. Desire is a very fun 
song instrumentally, and is not extremely (except for the guitar solo). Enjoy!

Username: dkm817 (same on X box live)
Youtube Cover: http://www.youtube.com/watch?v=26qtW9H7F_E
Email: guitardrums@rockfan.com

Guitar 1 Rhythmic (C G C F A D)
Guitar 2 Lead     (C G C F A D)

NOTE: This was exported off of guitar pro.


Guitar 1

     E  E  E  E  E  E  E  E     E  E  E  E  E  E  E  E
D||--------------------------|--------------------------|
A||--------------------------|--------------------------|
F||--------------------------|--------------------------|
C||--2--2-----2--------------|--2--2-----2--------------|
G||--2--2-----2--------------|--2--2-----2--------------|
C||--2--2-----2--------------|--2--2-----2--------------|


                       PM PM          PM    PM
  E  E  E  E  E  E  E  S  S     E  E  E  E  E  E  E  E
-----------------------------|--------------------------|
-----------------------------|--------------------------|
-----------------------------|--------------------------|
--2--2-----2-----------3--3--|--3--3--3--3--3--5--5--5--|
--2--2-----2-----------3--3--|--3--3--3--3--3--5--5--5--|
--2--2-----2-----------3--3--|--3--3--3--3--3--5--5--5--|


  E  E  E  E  E  E  E  E     E  E  E  E  E  E  E  E
--------------------------|--------------------------|
--------------------------|--------------------------|
--------------------------|--------------------------|
--2--2--0--2--2--5--5--5--|--2--2--0--2--2--7--7--7--|
--2--2--0--2--2--5--5--5--|--2--2--0--2--2--7--7--7--|
--2--2--0--2--2--5--5--5--|--2--2--0--2--2--7--7--7--|


                       PM PM          PM    PM
  E  E  E  E  E  E  E  S  S     E  E  E  E  E  E  E  E
-----------------------------|--------------------------|
-----------------------------|--------------------------|
-----------------------------|--------------------------|
--2--2--0--2--2--5--5--3--3--|--3--3--3--3--3--5--5--5--|
--2--2--0--2--2--5--5--3--3--|--3--3--3--3--3--5--5--5--|
--2--2--0--2--2--5--5--3--3--|--3--3--3--3--3--5--5--5--|


  PM PM PM PM PM PM PM PM PM PM PM    PM PM PM PM PM PM PM PM PM PM PM
  E  E  S  S  S  E  S  E  E  S  S     E  E  S  S  S  E  S  E  E  S  S
-----------------------------------|-----------------------------------|
-----------------------------------|-----------------------------------|
-----------------------------------|-----------------------------------|
--2--2--2--2--2--2--2--2--2--2--2--|--2--2--2--2--2--2--2--2--2--2--2--|
--2--2--2--2--2--2--2--2--2--2--2--|--2--2--2--2--2--2--2--2--2--2--2--|
--2--2--2--2--2--2--2--2--2--2--2--|--2--2--2--2--2--2--2--2--2--2--2--|


  PM PM PM PM PM PM PM PM PM PM PM    PM PM PM PM PM PM PM
  E  E  S  S  S  E  S  E  E  S  S     E  E  S  S  S  E  S  E  E  E
-----------------------------------|--------------------------------|
-----------------------------------|--------------------------------|
-----------------------------------|--5--5--5--5--5--4--4--0--L--L--|
--2--2--2--2--2--2--2--2--2--2--2--|--5--5--5--5--5--4--4-----4--L--|
--2--2--2--2--2--2--2--2--2--2--2--|--3--3--3--3--3--2--2--------2--|
--2--2--2--2--2--2--2--2--2--2--2--|--------------------------------|


  PM PM PM PM PM PM PM PM PM PM PM    PM PM PM PM PM PM PM PM PM PM PM
  E  E  S  S  S  E  S  E  E  S  S     E  E  S  S  S  E  S  E  E  S  S
-----------------------------------|-----------------------------------|
-----------------------------------|-----------------------------------|
-----------------------------------|-----------------------------------|
--2--2--2--2--2--2--2--2--2--2--2--|--2--2--2--2--2--2--2--2--2--2--2--|
--2--2--2--2--2--2--2--2--2--2--2--|--2--2--2--2--2--2--2--2--2--2--2--|
--2--2--2--2--2--2--2--2--2--2--2--|--2--2--2--2--2--2--2--2--2--2--2--|


  PM PM PM PM PM PM PM PM PM PM PM    PM PM PM PM PM PM PM
  E  E  S  S  S  E  S  E  E  S  S     E  E  S  S  S  E  S  E  E  E
-----------------------------------|--------------------------------|
-----------------------------------|--------------------------------|
-----------------------------------|--5--5--5--5--5--4--4--0--L--L--|
--2--2--2--2--2--2--2--2--2--2--2--|--5--5--5--5--5--4--4-----4--L--|
--2--2--2--2--2--2--2--2--2--2--2--|--3--3--3--3--3--2--2--------2--|
--2--2--2--2--2--2--2--2--2--2--2--|--------------------------------|


  E  E  E  E  E  E  E  E     E  E  E  E  E  E  E  E
--------------------------|--------------------------|
--------------------------|--------------------------|
--5--5--5--5--5--5--5--5--|--5--5--5--5--5--5--5--5--|
--5--5--5--5--5--5--5--5--|--5--5--5--5--5--5--5--5--|
--3--3--3--3--3--3--3--3--|--3--3--3--3--3--3--3--3--|
--------------------------|--------------------------|


  E  E  E  E  E  E  E  E     E  E  E  E  S S S S S S S S
--------------------------|------------------------------|
--------------------------|------------------------------|
--7--7--7--7--7--7--7--7--|--8--8--8--8--x-x-x-x-x-x-x-x-|
--7--7--7--7--7--7--7--7--|--8--8--8--8--x-x-x-x-x-x-x-x-|
--5--5--5--5--5--5--5--5--|--6--6--6--6--x-x-x-x-x-x-x-x-|
--------------------------|------------------------------|


  E  E  E  E  E  E  E  E     E  E  E  E  E  E  E  E
--------------------------|--------------------------|
--------------------------|--------------------------|
--------------------------|--------------------------|
--2--2--0--2--2--5--5--5--|--2--2--0--2--2--7--7--7--|
--2--2--0--2--2--5--5--5--|--2--2--0--2--2--7--7--7--|
--2--2--0--2--2--5--5--5--|--2--2--0--2--2--7--7--7--|


                       PM PM          PM    PM
  E  E  E  E  E  E  E  S  S     E  E  E  E  E  E  E  E
-----------------------------|--------------------------|
-----------------------------|--------------------------|
-----------------------------|--------------------------|
--5--5--5--5--5--5--5--0--0--|--0--0--0--0--0--0--0--0--|
--5--5--5--5--5--5--5--0--0--|--0--0--0--0--0--0--0--0--|
--5--5--5--5--5--5--5--0--0--|--0--0--0--0--0--0--0--0--|


  E  E  E  E  E  E  E  E     E  E  E  E  E  E  E  E
--------------------------|--------------------------|
--------------------------|--------------------------|
--------------------------|--------------------------|
--2--2--0--2--2--5--5--5--|--2--2--0--2--2--7--7--7--|
--2--2--0--2--2--5--5--5--|--2--2--0--2--2--7--7--7--|
--2--2--0--2--2--5--5--5--|--2--2--0--2--2--7--7--7--|


                       PM PM          PM    PM
  E  E  E  E  E  E  E  S  S     E  E  E  E  E  E  E  E
-----------------------------|--------------------------|
-----------------------------|--------------------------|
-----------------------------|--------------------------|
--5--5--5--5--5--5--5--3--3--|--3--3--3--3--3--5--5--5--|
--5--5--5--5--5--5--5--3--3--|--3--3--3--3--3--5--5--5--|
--5--5--5--5--5--5--5--3--3--|--3--3--3--3--3--5--5--5--|


  PM PM PM PM PM PM PM PM PM PM PM    PM PM PM PM PM PM PM PM PM PM PM
  E  E  S  S  S  E  S  E  E  S  S     E  E  S  S  S  E  S  E  E  S  S
-----------------------------------|-----------------------------------|
-----------------------------------|-----------------------------------|
-----------------------------------|-----------------------------------|
--2--2--2--2--2--2--2--2--2--2--2--|--2--2--2--2--2--2--2--2--2--2--2--|
--2--2--2--2--2--2--2--2--2--2--2--|--2--2--2--2--2--2--2--2--2--2--2--|
--2--2--2--2--2--2--2--2--2--2--2--|--2--2--2--2--2--2--2--2--2--2--2--|


  PM PM PM PM PM PM PM PM PM PM PM    PM PM PM PM PM PM PM
  E  E  S  S  S  E  S  E  E  S  S     E  E  S  S  S  E  S  E  E  E
-----------------------------------|--------------------------------|
-----------------------------------|--------------------------------|
-----------------------------------|--5--5--5--5--5--4--4--0--L--L--|
--2--2--2--2--2--2--2--2--2--2--2--|--5--5--5--5--5--4--4-----4--L--|
--2--2--2--2--2--2--2--2--2--2--2--|--3--3--3--3--3--2--2--------2--|
--2--2--2--2--2--2--2--2--2--2--2--|--------------------------------|


  PM PM PM PM PM PM PM PM PM PM PM    PM PM PM PM PM PM PM PM PM PM PM
  E  E  S  S  S  E  S  E  E  S  S     E  E  S  S  S  E  S  E  E  S  S
-----------------------------------|-----------------------------------|
-----------------------------------|-----------------------------------|
-----------------------------------|-----------------------------------|
--2--2--2--2--2--2--2--2--2--2--2--|--2--2--2--2--2--2--2--2--2--2--2--|
--2--2--2--2--2--2--2--2--2--2--2--|--2--2--2--2--2--2--2--2--2--2--2--|
--2--2--2--2--2--2--2--2--2--2--2--|--2--2--2--2--2--2--2--2--2--2--2--|


  PM PM PM PM PM PM PM PM PM PM PM    PM PM PM PM PM PM PM
  E  E  S  S  S  E  S  E  E  S  S     E  E  S  S  S  E  S  E  E  E
-----------------------------------|--------------------------------|
-----------------------------------|--------------------------------|
-----------------------------------|--5--5--5--5--5--4--4--0--L--L--|
--2--2--2--2--2--2--2--2--2--2--2--|--5--5--5--5--5--4--4-----4--L--|
--2--2--2--2--2--2--2--2--2--2--2--|--3--3--3--3--3--2--2--------2--|
--2--2--2--2--2--2--2--2--2--2--2--|--------------------------------|


  PM PM PM PM PM PM PM PM PM PM PM    PM PM PM PM PM PM PM PM PM PM PM
  E  E  S  S  S  E  S  E  E  S  S     E  E  S  S  S  E  S  E  E  S  S
-----------------------------------|-----------------------------------|
-----------------------------------|-----------------------------------|
-----------------------------------|-----------------------------------|
--2--2--2--2--2--2--2--2--2--2--2--|--2--2--2--2--2--2--2--2--2--2--2--|
--2--2--2--2--2--2--2--2--2--2--2--|--2--2--2--2--2--2--2--2--2--2--2--|
--2--2--2--2--2--2--2--2--2--2--2--|--2--2--2--2--2--2--2--2--2--2--2--|


  PM PM PM PM PM PM PM PM PM PM PM    PM PM PM PM PM PM PM
  E  E  S  S  S  E  S  E  E  S  S     E  E  S  S  S  E  S  E  E  E
-----------------------------------|--------------------------------|
-----------------------------------|--------------------------------|
-----------------------------------|--5--5--5--5--5--4--4--0--L--L--|
--2--2--2--2--2--2--2--2--2--2--2--|--5--5--5--5--5--4--4-----4--L--|
--2--2--2--2--2--2--2--2--2--2--2--|--3--3--3--3--3--2--2--------2--|
--2--2--2--2--2--2--2--2--2--2--2--|--------------------------------|


  E  E  E  E  E  E  E  E     E  E  E  E  E  E  E  E
--------------------------|--------------------------|
--------------------------|--------------------------|
--5--5--5--5--5--5--5--5--|--5--5--5--5--5--5--5--5--|
--5--5--5--5--5--5--5--5--|--5--5--5--5--5--5--5--5--|
--3--3--3--3--3--3--3--3--|--3--3--3--3--3--3--3--3--|
--------------------------|--------------------------|


  E  E  E  E  E  E  E  E     E  E  E  E  S S S S  Q
--------------------------|-----------------------------|
--------------------------|-----------------------------|
--7--7--7--7--7--7--7--7--|--8--8--8--8--x-x-x-x--------|
--7--7--7--7--7--7--7--7--|--8--8--8--8--x-x-x-x-12\----|
--5--5--5--5--5--5--5--5--|--6--6--6--6--x-x-x-x-12\----|
--------------------------|----------------------12\----|


  E  E  E  E  E  E  E  E     E  E  E  E  E  E  E  E
--------------------------|--------------------------|
--------------------------|--------------------------|
--------------------------|--------------------------|
--2--2--0--2--2--5--5--5--|--2--2--0--2--2--7--7--7--|
--2--2--0--2--2--5--5--5--|--2--2--0--2--2--7--7--7--|
--2--2--0--2--2--5--5--5--|--2--2--0--2--2--7--7--7--|


                       PM PM          PM    PM
  E  E  E  E  E  E  E  S  S     E  E  E  E  E  E  E  E
-----------------------------|--------------------------|
-----------------------------|--------------------------|
-----------------------------|--------------------------|
--5--5--5--5--5--5--5--0--0--|--0--0--0--0--0--0--0--0--|
--5--5--5--5--5--5--5--0--0--|--0--0--0--0--0--0--0--0--|
--5--5--5--5--5--5--5--0--0--|--0--0--0--0--0--0--0--0--|


  E  E  E  E  E  E  E  E     E  E  E  E  E  E  E  E
--------------------------|--------------------------|
--------------------------|--------------------------|
--------------------------|--------------------------|
--2--2--0--2--2--5--5--5--|--2--2--0--2--2--7--7--7--|
--2--2--0--2--2--5--5--5--|--2--2--0--2--2--7--7--7--|
--2--2--0--2--2--5--5--5--|--2--2--0--2--2--7--7--7--|


                       PM PM          PM    PM
  E  E  E  E  E  E  E  S  S     E  E  E  E  E  E  E  E
-----------------------------|--------------------------|
-----------------------------|--------------------------|
-----------------------------|--------------------------|
--5--5--5--5--5--5--5--3--3--|--3--3--3--3--3--5--5--5--|
--5--5--5--5--5--5--5--3--3--|--3--3--3--3--3--5--5--5--|
--5--5--5--5--5--5--5--3--3--|--3--3--3--3--3--5--5--5--|


  E  E  E  E  E  E  E  E     E  E  E  E  E  E  E  E
--------------------------|--------------------------|
--------------------------|--------------------------|
--------------------------|--------------------------|
--2--2-----2--------------|--2--2-----2--------------|
--2--2-----2--------------|--2--2-----2--------------|
--2--2-----2--------------|--2--2-----2--------------|


                       PM PM          PM    PM
  E  E  E  E  E  E  E  S  S     E  E  E  E  E  E  E  E
-----------------------------|--------------------------|
-----------------------------|--------------------------|
-----------------------------|--------------------------|
--2--2-----2-----------3--3--|--3--3--3--3--3--5--5--5--|
--2--2-----2-----------3--3--|--3--3--3--3--3--5--5--5--|
--2--2-----2-----------3--3--|--3--3--3--3--3--5--5--5--|


  E  E  E  E  E  E  E  E     E  E  E  E  E  E  E  E
--------------------------|--------------------------|
--------------------------|--------------------------|
--------------------------|--------------------------|
--2--2--0--2--2--5--5--5--|--2--2--0--2--2--7--7--7--|
--2--2--0--2--2--5--5--5--|--2--2--0--2--2--7--7--7--|
--2--2--0--2--2--5--5--5--|--2--2--0--2--2--7--7--7--|


                       PM PM          PM    PM
  E  E  E  E  E  E  E  S  S     E  E  E  E  E  E  E  E
-----------------------------|--------------------------|
-----------------------------|--------------------------|
-----------------------------|--------------------------|
--5--5--5--5--5--5--5--0--0--|--0--0--0--0--0--0--0--0--|
--5--5--5--5--5--5--5--0--0--|--0--0--0--0--0--0--0--0--|
--5--5--5--5--5--5--5--0--0--|--0--0--0--0--0--0--0--0--|


  E  E  E  E  E  E  E  E     E  E  E  E  E  E  E  E
--------------------------|--------------------------|
--------------------------|--------------------------|
--------------------------|--------------------------|
--2--2--0--2--2--5--5--5--|--2--2--0--2--2--7--7--7--|
--2--2--0--2--2--5--5--5--|--2--2--0--2--2--7--7--7--|
--2--2--0--2--2--5--5--5--|--2--2--0--2--2--7--7--7--|


                       PM PM          PM    PM
  E  E  E  E  E  E  E  S  S     E  E  E  E  E  E  E  E
-----------------------------|--------------------------|
-----------------------------|--------------------------|
-----------------------------|--------------------------|
--5--5--5--5--5--5--5--3--3--|--3--3--3--3--3--5--5--5--|
--5--5--5--5--5--5--5--3--3--|--3--3--3--3--3--5--5--5--|
--5--5--5--5--5--5--5--3--3--|--3--3--3--3--3--5--5--5--|


  E  E  E  E  E  E  E  E     E  E  E  E  E  E  E  E
--------------------------|--------------------------|
--------------------------|--------------------------|
--5--5--5--5--5--5--5--5--|--5--5--5--5--5--5--5--5--|
--5--5--5--5--5--5--5--5--|--5--5--5--5--5--5--5--5--|
--3--3--3--3--3--3--3--3--|--3--3--3--3--3--3--3--3--|
--------------------------|--------------------------|


  E  E  E  E  E  E  E  E
--------------------------|
--------------------------|
--7--7--7--7--7--7--7--7--|
--7--7--7--7--7--7--7--7--|
--5--5--5--5--5--5--5--5--|
--------------------------|


                   Pickslide
  S S S S S S S S  T         T  T  T  T  T  T  T  T  T  T  T  T  T  T T
------------------24--------23-22-21-20-19-18-17-16-15-14-13-12-11-10-9-|
------------------24--------23-22-21-20-19-18-17-16-15-14-13-12-11-10-9-|
--8-8-8-8-8-8-8-8-------------------------------------------------------|
--8-8-8-8-8-8-8-8-------------------------------------------------------|
--6-6-6-6-6-6-6-6-------------------------------------------------------|
------------------------------------------------------------------------|


  E  E  E  E  E  E  E  E     E  E  E  E  E  E  E  E
--------------------------|--------------------------|
--------------------------|--------------------------|
--------------------------|--------------------------|
--2--2--0--2--2--5--5--5--|--2--2--0--2--2--7--7--7--|
--2--2--0--2--2--5--5--5--|--2--2--0--2--2--7--7--7--|
--2--2--0--2--2--5--5--5--|--2--2--0--2--2--7--7--7--|


                       PM PM
  E  E  E  E  E  E  E  S  S     E  E  E  E  E   S  S  S  S  S  S
-----------------------------|-----------------------------------|
-----------------------------|-----------------------------------|
-----------------------------|-----------------------------------|
--2--2--0--2--2--5--5--3--3--|--3--3-----3-----------------------|
--2--2--0--2--2--5--5--3--3--|--3--3-----3------x--x--x--x--x--x-|
--2--2--0--2--2--5--5--3--3--|--3--3-----3-----------------------|


  E  E  E  E  E  E  E  E     E  E  E  E  E  E  E  E
--------------------------|--------------------------|
--------------------------|--------------------------|
--------------------------|--------------------------|
--2--2--0--2--2--5--5--5--|--2--2--0--2--2--7--7--7--|
--2--2--0--2--2--5--5--5--|--2--2--0--2--2--7--7--7--|
--2--2--0--2--2--5--5--5--|--2--2--0--2--2--7--7--7--|


                       PM PM          PM    PM
  E  E  E  E  E  E  E  S  S     E  E  E  E  E  E  E  E
-----------------------------|--------------------------|
-----------------------------|--------------------------|
-----------------------------|--------------------------|
--5--5--5--5--5--5--5--0--0--|--0--0--0--0--0--0--0--0--|
--5--5--5--5--5--5--5--0--0--|--0--0--0--0--0--0--0--0--|
--5--5--5--5--5--5--5--0--0--|--0--0--0--0--0--0--0--0--|


  E  E  E  E  E  E  E  E     E  E  E  E  E  E  E  E
--------------------------|--------------------------|
--------------------------|--------------------------|
--------------------------|--------------------------|
--2--2--0--2--2--5--5--5--|--2--2--0--2--2--7--7--7--|
--2--2--0--2--2--5--5--5--|--2--2--0--2--2--7--7--7--|
--2--2--0--2--2--5--5--5--|--2--2--0--2--2--7--7--7--|


                       PM PM          PM    PM
  E  E  E  E  E  E  E  S  S     E  E  E  E  E  E  E  E
-----------------------------|--------------------------|
-----------------------------|--------------------------|
-----------------------------|--------------------------|
--5--5--5--5--5--5--5--3--3--|--3--3--3--3--3--5--5--5--|
--5--5--5--5--5--5--5--3--3--|--3--3--3--3--3--5--5--5--|
--5--5--5--5--5--5--5--3--3--|--3--3--3--3--3--5--5--5--|


  E  E  E  E  E  E  E  E     E  E  E  E  E  E  E  E
--------------------------|--------------------------|
--------------------------|--------------------------|
--------------------------|--------------------------|
--2--2--0--2--2--5--5--5--|--2--2--0--2--2--7--7--7--|
--2--2--0--2--2--5--5--5--|--2--2--0--2--2--7--7--7--|
--2--2--0--2--2--5--5--5--|--2--2--0--2--2--7--7--7--|


                       PM PM          PM    PM
  E  E  E  E  E  E  E  S  S     E  E  E  E  E  E  E  E
-----------------------------|--------------------------|
-----------------------------|--------------------------|
-----------------------------|--------------------------|
--5--5--5--5--5--5--5--0--0--|--0--0--0--0--0--0--0--0--|
--5--5--5--5--5--5--5--0--0--|--0--0--0--0--0--0--0--0--|
--5--5--5--5--5--5--5--0--0--|--0--0--0--0--0--0--0--0--|


  E  E  E  E  E  E  E  E     E  E  E  E  E  E  E  E
--------------------------|--------------------------|
--------------------------|--------------------------|
--------------------------|--------------------------|
--2--2--0--2--2--5--5--5--|--2--2--0--2--2--7--7--7--|
--2--2--0--2--2--5--5--5--|--2--2--0--2--2--7--7--7--|
--2--2--0--2--2--5--5--5--|--2--2--0--2--2--7--7--7--|


                       PM PM          PM    PM
  E  E  E  E  E  E  E  S  S     E  E  E  E  E  E  E  E
-----------------------------|--------------------------|-----||
-----------------------------|--------------------------|-----||
-----------------------------|--------------------------|-----||
--5--5--5--5--5--5--5--3--3--|--3--3--3--3--3--5--5--5--|-----||
--5--5--5--5--5--5--5--3--3--|--3--3--3--3--3--5--5--5--|-----||
--5--5--5--5--5--5--5--3--3--|--3--3--3--3--3--5--5--5--|-----||


Guitar 2

     E  E  E  E  E  E  E  E     E  E  E  E  E  E  E  E
D||--------------------------|--------------------------|
A||--------------------------|--------------------------|
F||--------------------------|--------------------------|
C||--2--2-----2--------------|--2--2-----2--------------|
G||--2--2-----2--------------|--2--2-----2--------------|
C||--2--2-----2--------------|--2--2-----2--------------|


                       PM PM          PM    PM
  E  E  E  E  E  E  E  S  S     E  E  E  E  E  E  E  E
-----------------------------|--------------------------|
-----------------------------|--------------------------|
-----------------------------|--------------------------|
--2--2-----2-----------3--3--|--3--3--3--3--3--5--5--5--|
--2--2-----2-----------3--3--|--3--3--3--3--3--5--5--5--|
--2--2-----2-----------3--3--|--3--3--3--3--3--5--5--5--|


   Q     E   Q    E  Q        Q     E   Q    E  Q
--------------------------|--------------------------|
--12b----L--12----L--5----|--12b----L--12----L--L----|
--------------------------|--------------------------|
--------------------------|--------------------------|
--------------------------|--------------------------|
--------------------------|--------------------------|


   Q     E   Q    E  Q       E  E  E  E  E  E  E  E
--------------------------|---------------------------|
--12b----L--12----L--8----|--6--6-----6-----8--8--L\--|
--------------------------|---------------------------|
--------------------------|---------------------------|
--------------------------|---------------------------|
--------------------------|---------------------------|


  PM PM PM PM PM PM PM PM PM PM PM    PM PM PM PM PM PM PM PM PM PM PM
  E  E  S  S  S  E  S  E  E  S  S     E  E  S  S  S  E  S  E  E  S  S
-----------------------------------|-----------------------------------|
-----------------------------------|-----------------------------------|
-----------------------------------|-----------------------------------|
--2--2--2--2--2--2--2--2--2--2--2--|--2--2--2--2--2--2--2--2--2--2--2--|
--2--2--2--2--2--2--2--2--2--2--2--|--2--2--2--2--2--2--2--2--2--2--2--|
--2--2--2--2--2--2--2--2--2--2--2--|--2--2--2--2--2--2--2--2--2--2--2--|


  PM PM PM PM PM PM PM PM PM PM PM    PM PM PM PM PM PM PM
  E  E  S  S  S  E  S  E  E  S  S     E  E  S  S  S  E  S  E  E  E
-----------------------------------|--------------------------------|
-----------------------------------|--------------------------------|
-----------------------------------|--5--5--5--5--5--4--4--0--L--L--|
--2--2--2--2--2--2--2--2--2--2--2--|--5--5--5--5--5--4--4-----4--L--|
--2--2--2--2--2--2--2--2--2--2--2--|--3--3--3--3--3--2--2--------2--|
--2--2--2--2--2--2--2--2--2--2--2--|--------------------------------|


  PM PM PM PM PM PM PM PM PM PM PM    PM PM PM PM PM PM PM PM PM PM PM
  E  E  S  S  S  E  S  E  E  S  S     E  E  S  S  S  E  S  E  E  S  S
-----------------------------------|-----------------------------------|
-----------------------------------|-----------------------------------|
-----------------------------------|-----------------------------------|
--2--2--2--2--2--2--2--2--2--2--2--|--2--2--2--2--2--2--2--2--2--2--2--|
--2--2--2--2--2--2--2--2--2--2--2--|--2--2--2--2--2--2--2--2--2--2--2--|
--2--2--2--2--2--2--2--2--2--2--2--|--2--2--2--2--2--2--2--2--2--2--2--|


  PM PM PM PM PM PM PM PM PM PM PM    PM PM PM PM PM PM PM
  E  E  S  S  S  E  S  E  E  S  S     E  E  S  S  S  E  S  E  E  E
-----------------------------------|--------------------------------|
-----------------------------------|--------------------------------|
-----------------------------------|--5--5--5--5--5--4--4--0--L--L--|
--2--2--2--2--2--2--2--2--2--2--2--|--5--5--5--5--5--4--4-----4--L--|
--2--2--2--2--2--2--2--2--2--2--2--|--3--3--3--3--3--2--2--------2--|
--2--2--2--2--2--2--2--2--2--2--2--|--------------------------------|


  E  E  E  E  E  E  E  E     E  E  E  E  E  E  E  E
--------------------------|--------------------------|
--------------------------|--------------------------|
--5--5--5--5--5--5--5--5--|--5--5--5--5--5--5--5--5--|
--5--5--5--5--5--5--5--5--|--5--5--5--5--5--5--5--5--|
--3--3--3--3--3--3--3--3--|--3--3--3--3--3--3--3--3--|
--------------------------|--------------------------|


  E  E  E  E  E  E  E  E      Q      Q     S S S S S S S S
--------------------------|--------------------------------|
--------------------------|---7------7---------------------|
--7--7--7--7--7--7--7--7--|--10b----10b----x-x-x-x-x-x-x-x-|
--7--7--7--7--7--7--7--7--|----------------x-x-x-x-x-x-x-x-|
--5--5--5--5--5--5--5--5--|----------------x-x-x-x-x-x-x-x-|
--------------------------|--------------------------------|


   Q     E   Q    E  Q        Q     E   Q    E  Q
--------------------------|--------------------------|
--12b----L--12----L--5----|--12b----L--12----L--L----|
--------------------------|--------------------------|
--------------------------|--------------------------|
--------------------------|--------------------------|
--------------------------|--------------------------|


   Q     E   Q    E  Q        E   E  E  E  E  E  E  E
--------------------------|-----------------------------|
--12b----L--12----L--5----|--10--10--------------5--L\--|
--------------------------|-------------7--L--7---------|
--------------------------|-----------------------------|
--------------------------|-----------------------------|
--------------------------|-----------------------------|


   Q     E   Q    E  Q        Q     E   Q    E  Q
--------------------------|--------------------------|
--12b----L--12----L--5----|--12b----L--12----L--L----|
--------------------------|--------------------------|
--------------------------|--------------------------|
--------------------------|--------------------------|
--------------------------|--------------------------|


   Q     E   Q    E  Q       E  E  E  E  E  E  E  E
--------------------------|---------------------------|
--12b----L--12----L--8----|--6--6-----6-----8--8--L\--|
--------------------------|---------------------------|
--------------------------|---------------------------|
--------------------------|---------------------------|
--------------------------|---------------------------|


  PM PM PM PM PM PM PM PM PM PM PM    PM PM PM PM PM PM PM PM PM PM PM
  E  E  S  S  S  E  S  E  E  S  S     E  E  S  S  S  E  S  E  E  S  S
-----------------------------------|-----------------------------------|
-----------------------------------|-----------------------------------|
-----------------------------------|-----------------------------------|
--2--2--2--2--2--2--2--2--2--2--2--|--2--2--2--2--2--2--2--2--2--2--2--|
--2--2--2--2--2--2--2--2--2--2--2--|--2--2--2--2--2--2--2--2--2--2--2--|
--2--2--2--2--2--2--2--2--2--2--2--|--2--2--2--2--2--2--2--2--2--2--2--|


  PM PM PM PM PM PM PM PM PM PM PM    PM PM PM PM PM PM PM
  E  E  S  S  S  E  S  E  E  S  S     E  E  S  S  S  E  S  E  E  E
-----------------------------------|--------------------------------|
-----------------------------------|--------------------------------|
-----------------------------------|--5--5--5--5--5--4--4--0--L--L--|
--2--2--2--2--2--2--2--2--2--2--2--|--5--5--5--5--5--4--4-----4--L--|
--2--2--2--2--2--2--2--2--2--2--2--|--3--3--3--3--3--2--2--------2--|
--2--2--2--2--2--2--2--2--2--2--2--|--------------------------------|


   S  S  S  S  S  S  S  S  S  S  S  S  S  S  S  S
--------------------------------------------------|
--17-17-17-17-17-17-17-17-17-17-17-17-17-17-17-17-|
---x--x--x--x--x--x--x--x--x--x--x--x--x--x--x--x-|
--14-14-14-14-14-14-14-14-14-14-14-14-14-14-14-14-|
--------------------------------------------------|
--------------------------------------------------|


   S  S  S  S  S  S  S  S  S  S  S  S  S  S  S  S
--------------------------------------------------|
--17-17-17-17-17-17-17-17-17-17-17-17-17-17-17-17-|
---x--x--x--x--x--x--x--x--x--x--x--x--x--x--x--x-|
--14-14-14-14-14-14-14-14-14-14-14-14-14-14-14-14-|
--------------------------------------------------|
--------------------------------------------------|


   S  S  S  S  S  S  S  S  S  S  S  S  S  S  S  S
--------------------------------------------------|
--19-19-19-19-19-19-19-19-19-19-19-19-19-19-19-19-|
---x--x--x--x--x--x--x--x--x--x--x--x--x--x--x--x-|
--14-14-14-14-14-14-14-14-14-14-14-14-14-14-14-14-|
--------------------------------------------------|
--------------------------------------------------|


   S  S  S  S  S  S  S  S  S  S  S  S  S  S  S  S
--------------------------------------------------|
--20-20-20-20-20-20-20-20-20-20-20-20-20-20-20-20-|
---x--x--x--x--x--x--x--x--x--x--x--x--x--x--x--x-|
--14-14-14-14-14-14-14-14-14-14-14-14-14-14-14-14-|
--------------------------------------------------|
--------------------------------------------------|


   S  S  S  S  S  S  S  S  S  S  S  S  S  S  S  S
--------------------------------------------------|
--17-17-17-17-17-17-17-17-17-17-17-17-17-17-17-17-|
---x--x--x--x--x--x--x--x--x--x--x--x--x--x--x--x-|
--14-14-14-14-14-14-14-14-14-14-14-14-14-14-14-14-|
--------------------------------------------------|
--------------------------------------------------|


   S  S  S  S  S  S  S  S  S  S  S  S  S  S  S  S
--------------------------------------------------|
--17-17-17-17-17-17-17-17-17-17-17-17-17-17-17-17-|
---x--x--x--x--x--x--x--x--x--x--x--x--x--x--x--x-|
--14-14-14-14-14-14-14-14-14-14-14-14-14-14-14-14-|
--------------------------------------------------|
--------------------------------------------------|


   S  S  S  S  S  S  S  S  S  S  S  S  S  S  S  S
--------------------------------------------------|
--19-19-19-19-19-19-19-19-19-19-19-19-19-19-19-19-|
---x--x--x--x--x--x--x--x--x--x--x--x--x--x--x--x-|
--14-14-14-14-14-14-14-14-14-14-14-14-14-14-14-14-|
--------------------------------------------------|
--------------------------------------------------|


   S  S  S  S  S  S  S  S  S  S  S  S  S  S  S  S
--------------------------------------------------|
--20-20-20-20-20-20-20-20-20-20-20-20-20-20-20-20-|
---x--x--x--x--x--x--x--x--x--x--x--x--x--x--x--x-|
--14-14-14-14-14-14-14-14-14-14-14-14-14-14-14-14-|
--------------------------------------------------|
--------------------------------------------------|


   E   E   E   E  E  E  E  E     E  E  E  E  E  E  E  E
------------------------------|--------------------------|
--10--10--10--10--8--8--8--8--|--8--8--7--8--8--5--5--5--|
---x---x---x---x--x--x--x--x--|--x--x--x--x--x--x--x--x--|
---7---7---7---7--5--5--5--5--|--5--5--4--5--5--2--2--2--|
------------------------------|--------------------------|
------------------------------|--------------------------|


  E  E  E  E  E  E  E  E      Q      Q     S S S S  Q
--------------------------|-------------------------------|
--------------------------|---7------7--------------------|
--7--7--7--7--7--7--7--7--|--10b----10b----x-x-x-x--------|
--7--7--7--7--7--7--7--7--|----------------x-x-x-x-12\----|
--5--5--5--5--5--5--5--5--|----------------x-x-x-x-12\----|
--------------------------|------------------------12\----|


   Q     E   Q    E  Q        Q     E   Q    E  Q
--------------------------|--------------------------|
--12b----L--12----L--5----|--12b----L--12----L--L----|
--------------------------|--------------------------|
--------------------------|--------------------------|
--------------------------|--------------------------|
--------------------------|--------------------------|


   Q     E   Q    E  Q        E   E  E  E  E  E  E  E
--------------------------|-----------------------------|
--12b----L--12----L--5----|--10--10--------------5--L\--|
--------------------------|-------------7--L--7---------|
--------------------------|-----------------------------|
--------------------------|-----------------------------|
--------------------------|-----------------------------|


   Q     E   Q    E  Q        Q     E   Q    E  Q
--------------------------|--------------------------|
--12b----L--12----L--5----|--12b----L--12----L--L----|
--------------------------|--------------------------|
--------------------------|--------------------------|
--------------------------|--------------------------|
--------------------------|--------------------------|


   Q     E   Q    E  Q       E  E  E  E  E  E  E  E
--------------------------|---------------------------|
--12b----L--12----L--8----|--6--6-----6-----8--8--L\--|
--------------------------|---------------------------|
--------------------------|---------------------------|
--------------------------|---------------------------|
--------------------------|---------------------------|


              W
   E   S  E   Q    Q    E  S     E   S  E   S  E   H
--14b--L-14b--L----L----L--L-|--14b--L-14b--L-14b--L--------|
-----------------------------|------------------------------|
-----------------------------|------------------------------|
-----------------------------|------------------------------|
-----------------------------|------------------------------|
-----------------------------|------------------------------|


  \1/   \1/   \1/
  E   S E   S H        E     W
--------------------------|-------------------|
--------------------------|-------------------|
--------------------------|-------------------|
--------0---L-0--------L--|--L----------------|
--------------0--------L--|--L----------------|
--0---L-------0--------L--|--L----------------|


                          |--3--|
   Q    E  E     Q    E   S  S  S
-------------------------------14-|
--15----L--L\--/15----L-----15----|
---x-------------x-------16-------|
--12----L--L\--/12----L-----------|
----------------------------------|
----------------------------------|


   +1 Octave
   |------3-----|  |--3--|  |--3--|
   S         S  S  S  S  S  S  S  S  H          S  S
--17--------14---------------------------------15-17-|
---------------15------------------------------------|
------------------16---------------------------------|
---------------------17------------------------------|
------------------------17-16-14-16-17b--------------|
-----------------------------------------------------|


   Q     E   S  S  Q    E   S  S     Q      E   E  H
--17b----L--17-15----------12-14-|--14b---------------------|
------------------17----L--------|---------15---------------|
---------------------------------|-------------14--L--------|
---------------------------------|--------------------------|
---------------------------------|--------------------------|
---------------------------------|--------------------------|


         T                T                T                T
   |--3--|  |--3-|  |--3--|  |--3-|  |--3--|  |--3-|  |--3--|  |--3-|
   S  S  S  S  S S  S  S  S  S  S S  S  S  S  S  S S  S  S  S  S  S S
----------------------------------------------------------------------|
--10-12-15-12-10-8-10-12-15-12-10-8-10-12-15-12-10-8-10-12-15-12-10-8-|
----------------------------------------------------------------------|
----------------------------------------------------------------------|
----------------------------------------------------------------------|
----------------------------------------------------------------------|


         T                T
   |--3--|  |--3-|  |--3--|  |--3-|         |--3--|
   S  S  S  S  S S  S  S  S  S  S S   Q     S  S  S  S  S
------------------------------------/12-------------------|
--10-12-15-12-10-8-10-12-15-12-10-8--------15-17-15-------|
----------------------------------------------------16-14-|
----------------------------------------------------------|
----------------------------------------------------------|
----------------------------------------------------------|


   S  S  S  S  S  S  S  S  S  S  S  S  S  S  S  S
--------------------------------------------------|
--15-12-------12-10----10-10----------------------|
--------14-12-------12-------12-------------------|
--------------------------------14-12-12-14-12----|
-----------------------------------------------14-|
--------------------------------------------------|


                                    \1/
   Q      S  S  Q     E   E   E     W
---------------------------------|-------------------|
---------------------------------|-------------------|
---------------------------------|-------------------|
---------------------------------|-------------------|
--14b----12-14-12----14--12--10--|--7----------------|
---------------------------------|-------------------|


  \1/                                   PM PM PM PM PM PM
  Q    E   E   E   E   E   E     E  E   E  E  E  E  E  E
------------------------------|---------------------------|
--------------10--12--10------|---------------------------|
----------12--------------12--|--L--L\--------------------|
------------------------------|---------0--0--0--0--0--0--|
--7----L----------------------|---------------------------|
------------------------------|---------------------------|


                           Pickslide
  PM PM PM PM PM PM PM PM
  S  S  S  S  S  S  S  S   T         T  T  T  T  T  T  T  T  T  T  T  T  T  T T
--------------------------24--------23-22-21-20-19-18-17-16-15-14-13-12-11-10-9-|
--------------------------24--------23-22-21-20-19-18-17-16-15-14-13-12-11-10-9-|
--------------------------------------------------------------------------------|
--1--1--1--1--1--1--1--1--------------------------------------------------------|
--------------------------------------------------------------------------------|
--------------------------------------------------------------------------------|


                 H        E   S  S  S  S  S  S     Q     E   Q    E  Q
----|----|----|--------------------------------|--------------------------|
----|----|----|--------------------------------|--12b----L--12----L--5----|
----|----|----|--------------------------------|--------------------------|
----|----|----|--------------------------------|--------------------------|
----|----|----|---------------x--x--x--x--x--x-|--------------------------|
----|----|----|--------------------------------|--------------------------|


   Q     E   Q    E  Q        Q     E   Q    E  Q
--------------------------|--------------------------|
--12b----L--12----L--L----|--12b----L--12----L--5----|
--------------------------|--------------------------|
--------------------------|--------------------------|
--------------------------|--------------------------|
--------------------------|--------------------------|


   E   E  E  E  E  E  E  E       Q     E   Q    E  Q
-----------------------------|--------------------------|
--10--10--------------5--L\--|--12b----L--12----L--5----|
-------------7--L--7---------|--------------------------|
-----------------------------|--------------------------|
-----------------------------|--------------------------|
-----------------------------|--------------------------|


   Q     E   Q    E  Q        Q     E   Q    E  Q
--------------------------|--------------------------|
--12b----L--12----L--L----|--12b----L--12----L--8----|
--------------------------|--------------------------|
--------------------------|--------------------------|
--------------------------|--------------------------|
--------------------------|--------------------------|


  E  E  E  E  E  E  E  E       Q     E   Q    E  Q
---------------------------|--------------------------|
--6--6-----6-----8--8--L\--|--12b----L--12----L--5----|
---------------------------|--------------------------|
---------------------------|--------------------------|
---------------------------|--------------------------|
---------------------------|--------------------------|


   Q     E   Q    E  Q        Q     E   Q    E  Q
--------------------------|--------------------------|
--12b----L--12----L--L----|--12b----L--12----L--5----|
--------------------------|--------------------------|
--------------------------|--------------------------|
--------------------------|--------------------------|
--------------------------|--------------------------|


   E   E  E  E  E  E  E  E       Q     E   Q    E  Q
-----------------------------|--------------------------|
--10--10--------------5--L\--|--12b----L--12----L--5----|
-------------7--L--7---------|--------------------------|
-----------------------------|--------------------------|
-----------------------------|--------------------------|
-----------------------------|--------------------------|


   Q     E   Q    E  Q        Q     E   Q    E  Q
--------------------------|--------------------------|
--12b----L--12----L--L----|--12b----L--12----L--8----|
--------------------------|--------------------------|
--------------------------|--------------------------|
--------------------------|--------------------------|
--------------------------|--------------------------|


  E  E  E  E  E  E  E  E
---------------------------|-----||
--6--6-----6-----8--8--L\--|-----||
---------------------------|-----||
---------------------------|-----||
---------------------------|-----||
---------------------------|-----||


Duration Legend
---------------
W - whole
H - half
Q - quarter
E - 8th
S - 16th
T - 32nd
X - 64th
. - note dotted
|-n-|  - n-tuplets


Tablature Legend
----------------
L - tied note
x - dead note
g - grace note
(n) - ghost note
> - accentuded note
NH - natural harmonic
AH - artificial harmonic
TH - tapped harmonic
SH - semi harmonic
PH - pitch harmonic
h - hammer on
p - pull off
b - bend
br - bendRelease
pb - preBend
pbr - preBendRelease
brb - bendReleaseBend
\n/ - tremolo bar dip
\n - tremolo bar dive
-/n - tremolo bar Release up
/n\ - tremolo bar inverted dip
/n - tremolo bar return
-\n - tremolo bar Release down
S - shift slide
s - legato slide
/ -  slide into from below or out of upwards
\ -  slide into from above or out of downwards
~ - vibrato
W - wide vibrato
tr - trill
TP - tremolo picking
T - tapping
S - slap
P - pop
< - fade in
^ - brush up
v - brush down


That is all! I hope this helped, and be sure to check out my cover if you are
having problems with the tab. Thanks, oh and one last thing... ROCK OUT!!!!
Добавлено: 02.10.2013
Другие материалы по этой песне:
  • Аккорды и текст

Страница создана 02.10.2013
http://primanota.ru/escape-the-fate/desire-chords.htm
Привет, Гость.
Предлагаем пройти революционный курс по гитаре.
Подарок от PrimaNota.Ru, забирай!