PrimaNota.ru - самый крупный в мире бесплатный архив песенных текстов, аккордов, табулатур и нот


Escape The Fate - Day Of Wreckonig - таба, видео

Регистрация Запомнить меня
Войти через:  Facebook Google Twitter Vk Yandex Mail.ru

Escape The Fate - Day Of Wreckonig - таба, видео

Печатать
Просмотров: 151
This is my first tab, I hope you like. If you are not happy with my tabbing please say 
to me and say whats wrong with it.
my mail address is tobias.nowak3@gmail.com

tunig drop c (cgcfad)

intro:

-----------------------------------------------------------------------------------------------|
-----------------------------------------------------------------------------------------------|
------------------------------------7-7-7-6-6------------------------------------7-7-7-6-6-----|
--0-0-3-0-6-0-0-8-7---0-0-3-0-5-0-0-8-8-8-7-7----0-0-3-0-5-0-0-8-7-0-0-3-0-5-0-0-8-8-8-7-7-----|
--0r------------------0r-------------------------0r----------------0r--------------------------|
--0r------------------0r-------------------------0r----------------0r--------------------------|
guitar 1

-----------------------------------------------------------------------------------|
-----------------------------------------------------------------------------------|
----7-7-7----------------7-7-7----------------------7-7-7--------------7-7-7-------|
----7-7-7----------------7-7-7----------------------7-7-7--------------7-7-7-------|
----5-5-5----------------5-5-5----------------------5-5-5--------------5-5-5-------|
-----------------------------------------------------------------------------------|
guitar 2

--------------------------------------------------------------------------------------------|
--------------------------------------------------------------------------------------------|
-----------------------------------------------------------------------5-5-7-7--------------|
--0-0-3-0-5-0-0-------0-0-3-0-5-0-0-8-0-7-5---0-0-3-0-5-0-0-------0-0--3-3-5-5-0-8-0-7-5----|
--0-0-3-0-5-0-0-------0-0-3-0-5-0-0-8-0-7-5---0-0-3-0-5-0-0-------0-0----------0-8-0-7-5----|
--0-0-3-0-5-0-0-8-7---0-0-3-0-5-0-0-8-0-7-5---0-0-3-0-5-0-0-8-7---0-0----------0-8-0-7-5----|

verse 1:

------------------------------------------------------------------------------------------|
------------------------------------------------------------------------------------------|
---------------------------------------------------------------------5-5-7-7--------------|
----------------------------------0-8-0-7-5---------------------0-0--3-3-5-5-0-8-0-7-5----|
----------------------------------0-8-0-7-5---------------------0-0----------0-8-0-7-5----|
--0-0-3-0-5-0-0-8-7---0-0-3-0-5-0-0-8-0-7-5--0-0-3-0-5-0-0-8-7--0-0----------0-8-0-7-5----|

pre chorus:

------------------------------------------------------------------------------|
------------------------------------------------------------------------------|
------------------------------------------------------------------------------|
-12-12-12-12-12-12-12-10-10-10-10-10-10-10-9-9-9-9-9-9-9-8-8-8----------------|
-12-12-12-12-12-12-12-10-10-10-10-10-10-10-9-9-9-9-9-9-9-8-8-8----------------|
-12-12-12-12-12-12-12-10-10-10-10-10-10-10-9-9-9-9-9-9-9-8-8-8----------------|

chorus:

------------------------------------------------------------------------------|
------------------------------------------------------------------------------|
------------------------------------------------------------------------------|
--0-0-0-0-0-0-7-7-7-7-7-7-8-8-8-8-8-8-----------------------------------------|
--0-0-0-0-0-0-7-7-7-7-7-7-8-8-8-8-8-8-----------------------------------------|
--0-0-0-0-0-0-7-7-7-7-7-7-8-8-8-8-8-8-3-3-3-3-2-2-2-2-------------------------|play
two times/guitar 1

------------------------------------------------------------------------------|
------------------------------------------------------------------------------|
--14-14-14-14-15-14-12-12-----------------------------------------------------|
--------------------------14-14-15-15-15-15-15-15-15-15-14-14-14--------------|
------------------------------------------------------------------------------|
------------------------------------------------------------------------------|
guitar two play two times

intro:

------------------------------------------------------|
------------------------------------------------------|
------------------------------------------------------|
----------------------------------0-8-0-7-5-----------|
----------------------------------0-8-0-7-5-----------|
--0-0-3-0-5-0-0-8-7---0-0-3-0-5-0-0-8-0-7-5-----------|
guitar 1


------------------------------------------------------------------------------|
------------------------------------------------------------------------------|
------------------------------------------------------------------------------|
--0r------------------------------0-8-0-7-5-----------------------------------|
--0r------------------------------0-8-0-7-5-----------------------------------|
--0r------------------------------0-8-0-7-5-----------------------------------|
guiTAR 2


verse 2:

------------------------------------------------------------------------------------------|
------------------------------------------------------------------------------------------|
---------------------------------------------------------------------5-5-7-7--------------|
----------------------------------0-8-0-7-0---------------------0-0--3-3-5-5-0-8-0-7-5----|
----------------------------------0-8-0-7-0---------------------0-0----------0-8-0-7-5----|
--0-0-3-0-5-0-0-8-7---0-0-3-0-5-0-0-8-0-7-0--0-0-3-0-5-0-0-8-7--0-0----------0-8-0-7-5----|

pre chorus:

-----------------------------------------------------------------------------|
-----------------------------------------------------------------------------|
-----------------------------------------------------------------------------|
-12-12-12-12-12-12-12-10-10-10-10-10-10-10-9-9-9-9-9-9-9-8-8-8---------------|
-12-12-12-12-12-12-12-10-10-10-10-10-10-10-9-9-9-9-9-9-9-8-8-8---------------|
-12-12-12-12-12-12-12-10-10-10-10-10-10-10-9-9-9-9-9-9-9-8-8-8---------------|

chorus:

-------------------------------------------------------------------------------|
-------------------------------------------------------------------------------|
-------------------------------------------------------------------------------|
--0-0-0-0-0-0-7-7-7-7-7-7-8-8-8-8-8-8------------------------------------------|
--0-0-0-0-0-0-7-7-7-7-7-7-8-8-8-8-8-8------------------------------------------|
--0-0-0-0-0-0-7-7-7-7-7-7-8-8-8-8-8-8-3-3-3-3-2-2-2-2--------------------------|
play two times

-----------------------------------------------------------------------------|
-----------------------------------------------------------------------------|
--14-14-14-14-15-14-12-12----------------------------------------------------|
--------------------------14-14-15-15-15-15-15-15-15-15-14-14-14-------------|
-----------------------------------------------------------------------------|
-----------------------------------------------------------------------------|
guitar two play two times

bridge:

-----------------------------------------------------------------------------------------------|
-----------------------------------------------------------------------------------------------|
------------------------------------7-7-7-6-6-----------------------------------7-7-7-6-6------|
--0-0-3-0-6-0-0-8-7---0-0-3-0-5-0-0-8-8-8-7-7----0-0-3-0-5-0-0-8-7-0-0-3-0-5-0-0-8-8-8-7-7-----|
--0r------------------0r-------------------------0r----------------0r--------------------------|
--0r------------------0r-------------------------0r----------------0r--------------------------|
guitar 1

-----------------------------------------------------------------------------|
-----------------------------------------------------------------------------|
----7-7-7----------------7-7-7----------------------7-7-7--------------7-7-7-|
----7-7-7----------------7-7-7----------------------7-7-7--------------7-7-7-|
----5-5-5----------------5-5-5----------------------5-5-5--------------5-5-5-|
-----------------------------------------------------------------------------|
guitar 2

-----------------------------------------------------------------------------|
-----------------------------------------------------------------------------|
-----------------------------------------------------------------------------|
--0-0-0--0--0-0-0----8-7-7-7-------------------------------------------------|
--0-0-0--0--0-0-0----8-7-7-7-------------------------------------------------|
--0-0-0--0--0-0-0----8-7-7-7-------------------------------------------------|
play four times/guitar 1


-----------------------------------------------------------------------------|
-----------------------------------------------------------------------------|
-----------------------------------------------------------------------------|
--0-0-0--0--0-0-0----8-7-7-7-------------------------------------------------|
--0-0-0--0--0-0-0----8-7-7-7-------------------------------------------------|
--0-0-0--0--0-0-0----8-7-7-7-------------------------------------------------|
guitar 1/ play three times

------------------------------------------------------------------------|
------------------------------------------------------------------------|
------------------------------------7-7-7-6-6---------------------------|
--0-0-3-0-6-0-0-8-7---0-0-3-0-5-0-0-8-8-8-7-7----0-0-3-0-5-0-0-8-7------|
--0r------------------0r-------------------------0r---------------------|
--0r------------------0r-------------------------0r---------------------|
guitar 2 plays with guitar 1

-----------------------------------------------------------------------------|
-----------------------------------------------------------------------------|
-----------------------------------------------------------------------------|
-12-12-12-12-12-12-12-10-10-10-10-10-10-10-9-9-9-9-9-9-9-8-8-8---------------|
-12-12-12-12-12-12-12-10-10-10-10-10-10-10-9-9-9-9-9-9-9-8-8-8---------------|
-12-12-12-12-12-12-12-10-10-10-10-10-10-10-9-9-9-9-9-9-9-8-8-8---------------|
both guitars

chorus:

-----------------------------------------------------------------------------|
-----------------------------------------------------------------------------|
-----------------------------------------------------------------------------|
--0-0-0-0-0-0-7-7-7-7-7-7-8-8-8-8-8-8----------------------------------------|
--0-0-0-0-0-0-7-7-7-7-7-7-8-8-8-8-8-8----------------------------------------|
--0-0-0-0-0-0-7-7-7-7-7-7-8-8-8-8-8-8-3-3-3-3-2-2-2-2------------------------|
play four times/guitar 1

-----------------------------------------------------------------------------|
-----------------------------------------------------------------------------|
--14-14-14-14-15-14-12-12----------------------------------------------------|
--------------------------14-14-15-15-15-15-15-15-15-15-14-14-14-------------|
-----------------------------------------------------------------------------|
-----------------------------------------------------------------------------|
guitar two play four times

outro:

-----------------------------------------------------------------------------|
-----------------------------------------------------------------------------|
-----------------------------------------------------------------------------|
--0-0-0--0--0-0-0----8-7-7-7-------------------------------------------------|
--0-0-0--0--0-0-0----8-7-7-7-------------------------------------------------|
--0-0-0--0--0-0-0----8-7-7-7-------------------------------------------------|
guitar 1/ play three times

------------------------------------------------------------------------|
------------------------------------------------------------------------|
------------------------------------7-7-7-6-6---------------------------|
--0-0-3-0-6-0-0-8-7---0-0-3-0-5-0-0-8-8-8-7-7----0-0-3-0-5-0-0-8-7------|
--0r------------------0r-------------------------0r---------------------|
--0r------------------0r-------------------------0r---------------------|
guitar 2 plays with guitar 1

-----------------------------------------------------------------------------|
-----------------------------------------------------------------------------|
-----------------------------------------------------------------------------|
--0-0-0--0--0--0-0-0---------------------------------------------------------|
--0-0-0--0--0--0-0-0---------------------------------------------------------|
--0-0-0--0--0--0-0-0---------------------------------------------------------|
both guitars


the end! hoped you understood by band tabbing I#m not too sure if all tabs really fit 
the song, but it 90% do fit with the song, so I think.

have fun by learning!
Добавлено: 17.09.2013
Другие материалы по этой песне:
  • Аккорды и текст

Страница создана 17.09.2013
http://primanota.ru/escape-the-fate/day-of-wreckonig-chords.htm
Привет, Гость.
Предлагаем пройти революционный курс по гитаре.
Подарок от PrimaNota.Ru, забирай!