PrimaNota.ru - самый крупный в мире бесплатный архив песенных текстов, аккордов, табулатур и нот


Escape The Fate - City Of Sin - текст песни, таба, видео

Регистрация Запомнить меня
Войти через:  Facebook Google Twitter Vk Yandex Mail.ru

Escape The Fate - City Of Sin - текст песни, таба, видео

Печатать
Просмотров: 245
Artist : *Escape The Fate*
Song : *City Of Sin*
Tuning : *Drop D*

!!!Sorry, the song isn't complete yet. I'll update the tab when I've figured out 
the rest of it.!!!


City Of Sin:

Intro  (0:06-0:20) : 

Lead (0:06) :
E|----------------------|
B|----------------------|
G|----------------------|
D|----------------------|
A|----------2-----------|        X1
D|-2--5--2-----2--5--2--|


Rhythm (0:10) : 
E|----------------------|
B|----------------------|
G|----------4-----------|        X1
D|-2--5--2--4--2--5--2--|
A|-2--5--2--2--2--5--2--|
D|-2--5--2-----2--5--2--|


Lead (0:10) :
E|----------------------|
B|----------------------|
G|----------16----------|        X1
D|-14-17-14----14-16-18-|
A|----------------------|
D|----------------------|


Lead (0:14) :
E|----------------------|
B|----------19----------|        X1
G|-16-19-16-16-16-18-15-|
D|-14-17-14----14-16-13-|
A|----------------------|
D|----------------------|


Verse 1 (0:21-0:36) :

Lead (0:21) : 
E|----------------------|
B|----------------------|
G|----------16----------|        X2
D|-14-17-14----14-16-18-|
A|----------------------|
D|----------------------|


Pre-Chorus (0:37-0:44) :

Haven't got it yet. (Don't even know if there is a guitar part)


Chorus (0:45-1:00) :

Haven't got it yet.


Post-Chorus (1:01-1:07) :

Lead (1:01) :
E|----------------------|
B|----------------------|
G|----------16----------|        X2
D|-14-17-14----14-16-18-|
A|----------------------|
D|----------------------|


Verse 2 (1:08-1:22) :

Lead (1:08) :
E|----------------------|
B|----------------------|
G|----------16----------|        X2
D|-14-17-14----14-16-18-|
A|----------------------|
D|----------------------|


Pre-Chorus (1:23-1:30) :


Chorus (1:31-1:45) :


Pre-Solo (1:46-1:53) :

Lead (1:46) :
E|----------------------|
B|------------13d-------|
G|-----17w~~~-----------|
D|-12d------------------|
A|----------------------|
D|----------------3-5-0-|


Solo (1:54-2:09) :

The best part, but not got it yet. :(

Post-Solo (2:10-2:16) :

Lead (2:10) :
E|----------------------------|
B|----------------------------|
G|----------------------------|
D|-9-8-9-8-9-8-9--9-8-9-8-9-8-|
A|----------------------------|
D|----------------------------|

Chorus (2:17-2:32)

Outro (2:33-2:41) :

Lead (2:33) :
E|---------------------------------------|
B|---------------------------------------|
G|---------------------------------------|
D|-9-8-9-8-9-8-9--9-8-9-8-9--11-11-13-11-|
A|---------------------------------------|
D|---------------------------------------|

That's it.
Добавлено: 03.06.2013
Другие материалы по этой песне:
  • Аккорды и текст

Страница создана 03.06.2013
http://primanota.ru/escape-the-fate/city-of-sin-chords.htm
Привет, Гость.
Предлагаем пройти революционный курс по гитаре.
Подарок от PrimaNota.Ru, забирай!