PrimaNota.ru - самый крупный в мире бесплатный архив песенных текстов, аккордов, табулатур и нот


Esben And The Witch - Marching Song - таба, видео

Регистрация Запомнить меня
Войти через:  Facebook Google Twitter Vk Yandex Mail.ru

Esben And The Witch - Marching Song - таба, видео

Печатать
Просмотров: 112
Авторы музыки: Daniel Copeman, Thomas Fisher, Rachel Davies

Intro:

e|--------------------|
B|----------10b-------|
G|--9b--hold-the-bend-|
D|--------------------|
A|--------------------|
E|--------------------|

Then at 0:32

e|--------------------|
B|--------------------|
G|--9--6-5------------|
D|--9--6-5------------| holding each power chord.
A|--7--4-3------------|
E|--------------------|

There's also a beat continually through the song which sounds like two wooden blocks 
being struck together. When the song is played live I think its:

e|-19-| Played continuously on the fret and muted slightly.
B|-19-|

Verse:

e|---------------------------------------------------------|
B|---------------------------------------------------------|
G|---------------------------------------------------------|
D|------9----9----9----9----9------6----6---6/----5---5--5-|
A|-/7-7---7-7--7-7--7-7--7-7--7/4-4--4-4--4----3-3-3-3--3--|
E|---------------------------------------------------------|

sometimes you get:

e|--------------------------------|
B|--------------------------------|
G|--------------------------------|
D|------9----9---------9----9-----|
A|-/7-7---7-7--7-7-7-7-7--7-7--7/4|
E|--------------------------------|

2:45

e|--------------------------------|
B|--------------------------------|
G|---9b/17b/16br------------------|
D|---9b/17b/16br------------------|
A|--------------------------------|
E|--------------------------------|

Solo (On 33 not on Violet Cries) :

e|--------------------------------------|
B|--------------------------------------|
G|--------------------9-7---------------|
D|--7-9-7--5---5----------9--5---5------|
A|-7---------7---7--7----------6--6-----|
E|--------------------------------------|

Band Page here: http://www.esbenandthewitch.co.uk/
Добавлено: 21.08.2013
Другие материалы по этой песне:
  • Аккорды и текст

Страница создана 21.08.2013
http://primanota.ru/esben-and-the-witch/marching-song-chords.htm
Привет, Гость.
Предлагаем пройти революционный курс по гитаре.
Подарок от PrimaNota.Ru, забирай!