PrimaNota.ru - самый крупный в мире бесплатный архив песенных текстов, аккордов, табулатур и нот


Erwin Beekveld - They Are Taking The Hobbits To Isengard - бас-таба, видео

Регистрация Запомнить меня
Войти через:  Facebook Google Twitter Vk Yandex Mail.ru

Erwin Beekveld - They Are Taking The Hobbits To Isengard - бас-таба, видео

Печатать
Просмотров: 150
The tuning is standard but lowered by two steps to C, so it's C F A#D#.


intro:
D#------------------------|------------------------|------------------------|----------------------4|
A#-2--2--------2--2------2|-------------2--2-------|-2--2--------2--2------2|-------------------2---|
F -------2--2--------2--2-|-0--0--2--2--------2--2-|-------2--2--------2--2-|-0--0--0--0--2--2------|
C ------------------------|------------------------|------------------------|-----------------------|

D#------------------------|------------------------|------------------------|-----------------------|
A#-2--2--------2--2------2|-------------2--2-------|-2--2--------2--2------2|-------------------2--2|
F -------2--2--------2--2-|-0--0--2--2--------2--2-|-------2--2--------2--2-|-0--0--0--0--2--2------|
C ------------------------|------------------------|------------------------|-----------------------|


- only lyrics -  

They're taking the hobbits to Isengard! 6x

They're taking the hobbits to Isengard! gard gard gard gard
They're taking the hobbits to Isengard! gard gard ga-gard gard

They're taking the hobbits to Isengard! 3x
What did you say?

The hobbits 4x            |
to Isengard, to Isengard  |3x

They're taking the hobbits to Isengard! gard ga-ga-ga-gard


second melody:
D#------------------------|------------------------|------------------------|-----------------------|
A#-------------2--0-------|-------2-----0----------|-------------2--0-------|-------2-----0---------|
F -------2-----------2----|-0--3-----3-----2-----2-|-------2-----------2----|-0--3-----3-----2-----2|
C -0--3-----3-----------3-|-------------------0----|-0--3-----3-----------3-|-------------------0---|

(repeat until the intro)
 
Tell me, where is Gandalf, for I much desire to speak with him. 2x

A balrog of Morgoth... |
What did you say?      |2x


- intro - 
(intro goes while lyrics) 

They're taking the hobbits to Isengard! |
Stupid fat hobbit!                      |2x

They're taking the hobbits to Isengard! 2x

Stupid fat hobbit!


- only lyrics -
Leave now, and never come back!
Добавлено: 29.07.2015
Вам также может быть интересно:
Другие материалы по этой песне:
  • Аккорды и текст

Страница создана 29.07.2015
http://primanota.ru/erwin-beekveld/they-are-taking-hobbits-to-isengard-chords.htm
Привет, Гость.
Предлагаем пройти революционный курс по гитаре.
Подарок от PrimaNota.Ru, забирай!