PrimaNota.ru - самый крупный в мире бесплатный архив песенных текстов, аккордов, табулатур и нот


Eruca Sativa - Desdobla - таба, видео

Регистрация Запомнить меня
Войти через:  Facebook Google Twitter Vk Yandex Mail.ru

Eruca Sativa - Desdobla - таба, видео

Печатать
Просмотров: 47
Espero que les sirva la tablatura, cualquier sugerencia o si ven que algo
esta mal avisen! Este tema se puede tocar con la 6ta en Mi pero vi en vivo
que Lula usa la 6ta en Re asique así lo escribí, pero si quieren tocarlo con
la 6ta en Mi lo único que tienen que hacer es tocar todo lo de esa cuerda 2
casilleros mas atrás!


DESDOBLA


siento la necesidad
de decirte la verdad,
lo q soy cuando en mi
se desdobla mi humanidad

Riff 1

E|-----------------------------------------------------------------------|
B|-----------------------------------------------------------------------|
G|-----------------------------------------------------------------------|
D|-----------------------------------------------------------------------|
A|---------6------6-8-----------------------6------6-8-------------------|
D|-3-3-/10-----10-----9-8--6--6-6-7-8-3-/10-----10-----9-8--6--6-6-7-8-3-|


No temo al confesar
que reconozco a alguien más
en mi piel, en mi ser,
somos dos, o no lo ves?


Riff 1

E|-----------------------------------------------------------------------|
B|-----------------------------------------------------------------------|
G|-----------------------------------------------------------------------|
D|-----------------------------------------------------------------------|
A|---------6------6-8-----------------------6------6-8-------------------|
D|-3-3-/10-----10-----9-8--6--6-6-7-8-3-/10-----10-----9-8--6--6-6-7-8-3-|


C#5         Ddim          Eb5            Edim
   Puedo sentir que espera el momento exacto de salir


Riff 2

E|----------------------------------|     E|----------|
B|----------------------------------|     B|----------|
G|----------------------------------|     G|----------|
D|----------------------------------| X4  D|----------|
A|---------6------6-8-------------5-|     A|-5--4--4--|
D|-3-3-/10-----10-----4-5-6-4-5-6---|     D|----------|


Quiero todo el control
para hacerlo a mi manera
Quiero todo el control
Nunca estuve tan en           mí       co mo hoy


Riff 1

E|-----------------------------------------------------------------------|
B|-----------------------------------------------------------------------|
G|-----------------------------------------------------------------------|
D|-----------------------------------------------------------------------|
A|---------6------6-8-----------------------6------6-8-------------------|
D|-3-3-/10-----10-----9-8--6--6-6-7-8-3-/10-----10-----9-8--6--6-6-7-8-3-|


Sé muy bien lo que ves,
es lo que quiero mostrar.
Pero hay más qu esta paz
en mi cara oculta está


Riff 1

E|-----------------------------------------------------------------------|
B|-----------------------------------------------------------------------|
G|-----------------------------------------------------------------------|
D|-----------------------------------------------------------------------|
A|---------6------6-8-----------------------6------6-8-------------------|
D|-3-3-/10-----10-----9-8--6--6-6-7-8-3-/10-----10-----9-8--6--6-6-7-8-3-|


Ya no puedo resignar
a mi estado ideal,
 sale a respirar
y no quiero ahogarlo
Insatisfacciones
me queman por dentro,
se desequilibran,
liberan mi opuesto


C#5         Ddim          Eb5            Edim
   Puedo sentir que espera el momento exacto de salir

Riff 2 (la 4ta vez es hasta el *)

                    *
E|----------------------------------|
B|----------------------------------|
G|----------------------------------|
D|----------------------------------| X4
A|---------6------6-8-------------5-|
D|-3-3-/10-----10-----4-5-6-4-5-6---|


Quiero todo el control
para hacerlo a mi manera
Quiero todo el control


Riff 3

E|------------------------------------------------------|
B|------------------9~----------------------------------|
G|---------------10-----10p8----7---7------6---6--------|
D|------------10-------------10-------8-6--------8-6----| X2
A|--------6/8-----------------------------8----------8--|
D|-3-3-/10----------------------------------------------|


   F5    Eb5
E|--------------------------------|
B|--------------------------------|
G|-------8-8-8-8-8----------------|
D|-3-3-3-8-8-8-8-8-6-7-8-6-7-8-6--| X4
A|-3-3-3-6-6-6-6-6-6-7-8-6-7-8-6--|
D|-3-3-3-----------6-7-8-6-7-8-6--|

Quiero todo el control
para hacerlo a mi manera
Quiero todo el control


F5 Eb5 Ab5 A5 X4 F5

Quiero todo el control


ACORDES:

     C#5       Ddim          Eb5         Edim

E|---------|  E|---------|  E|---------|  E|---------|
B|---------|  B|---------|  B|---------|  B|---------|
G|----6----|  G|----7----|  G|----8----|  G|----9----|
D|----6----|  D|----6----|  D|----8----|  D|----8----|
A|----4----|  A|----5----|  A|----6----|  A|----7----|
D|---------|  D|---------|  D|---------|  D|---------|

     F5         Ab5          A5

E|---------|  E|---------|  E|---------|
B|---------|  B|---------|  B|---------|
G|---------|  G|---------|  G|---------|
D|----3----|  D|----6----|  D|----7----|
A|----3----|  A|----6----|  A|----7----|
D|----3----|  D|----6----|  D|----7----|
Добавлено: 15.08.2014
Другие материалы по этой песне:
  • Аккорды и текст

Страница создана 15.08.2014
http://primanota.ru/eruca-sativa/desdobla-chords.htm
Привет, Гость.
Предлагаем пройти революционный курс по гитаре.
Подарок от PrimaNota.Ru, забирай!