PrimaNota.ru - самый крупный в мире бесплатный архив песенных текстов, аккордов, табулатур и нот


Erskine Hawkins - Tuxedo Junction - бас-таба, видео

Регистрация Запомнить меня
Войти через:  Facebook Google Twitter Vk Yandex Mail.ru

Erskine Hawkins - Tuxedo Junction - бас-таба, видео

Печатать
Просмотров: 248
Авторы музыки: Julian Dash, Erskine Hawkins, Buddy Feyne, Bill Johnson
Авторы текста: Buddy Feyne
-----------------------------------------------------------------------
			     TUXEDO JUNCTION - Erskine Hawkins
-----------------------------------------------------------------------

Erskine Hawkins was a jazz musician, played with an orchestra and this is one of their songs.

Tabbed By : Toney V
Swing Rhythm, tempo: 126

A jazz song, figured one day someone else might need it. I play in jazz band and make
tab for the songs as reference (I know, so shoot me). Really, try not to rely on tab,
but if you need it, here it is.

Tuning: EADG

G|----2---|3--4~~--| 
D|3-------|--------|
A|--------|------3-| x2
E|--------|--------|

Measure 5
G|----2---|3---5~~-|        |----2---|3-—1~~~1|--4-5---|--------|
D|3-------|--------|        |3-------|--------|5-----4-|3~~---2-|
A|--------|-------3| x2     |--------|--------|--------|----3---|
E|--------|--------|        |--------|--------|--------|--------|

G|----2---|3---5~~-|        |----2---|3-—1~~~1|--4-5---|--0-1-2-|------0-|
D|3-------|--------|        |3-------|--------|5-----4-|3-------|--0~~---|
A|--------|-------3| x2     |--------|--------|--------|--------|0—------|
E|--------|--------|        |--------|--------|--------|--------|--------|

Measure 14
G|3-----0-|3-1-0---|--2-3-4-|5-2---2-|3-------|--------|-----5--|
D|--0-3---|------4-|3-------|----3---|--3-0---|--------|--------|
A|--------|--------|--------|--------|------0-|3-1-2-3-|------3-|
E|--------|--------|--------|--------|--------|--------|--------|

Measure 21
G|----2---|3---5~~-|        |----2---|3---1~~-|0-4-5---|----0-0-|
D|3-------|--------|        |3-------|-------4|--------|-30-----|
A|--------|-------3| x2     |--------|--------|------3-|-------3|
E|--------|--------|        |--------|--------|--------|--------|

Solo Rhythm (Repeat as many times as necessary, Default: 4)

Measure 30
G|----2---|3---4~~-|        |----2---|3---1~~-|--------|----5---|
D|3-------|--------|        |3-------|-------4|5-----2-|3-------|
A|--------|-------3| x2     |--------|--------|----3---|------3-|
E|--------|--------|        |--------|--------|--------|--------|

Measure 38
G|----2---|3---4~~-|        |----2---|3---1~~-|--------|--0-1-2-|
D|3-------|--------|        |3-------|-------4|5-----2-|3-------|
A|--------|-------3| x2     |--------|--------|----3---|--------|
E|--------|--------|        |--------|--------|--------|--------|

Measure 46
G|3-1-0---|--2-3---|--------|--8-7-5-|3-------|------3-|2-------|--------|
D|------4-|3-------|--0-1-2-|3-------|--3-0---|--0-3---|--1-0-4-|0-----2-|
A|--------|------2-|3-------|--------|------3-|1-------|--------|--4-3---|
E|--------|--------|--------|--------|--------|--------|--------|--------|

Measure 54
G|----2---|3---4~~-|        |----2---|3---1~~-|5-------|--4-5---|
D|3-------|--------|        |3-------|-------4|------2-|3-------|
A|--------|-------3| x2     |--------|--------|----3---|------3-|
E|--------|--------|        |--------|--------|--------|--------|

End Solo Rhythm

Measure 62
G|--0-1-2-|3-3-2-2-|5---0-2-|3---4---|5---0-2-|3-3-1---|0-4-5---|--2-3---|
D|3-------|--------|--3-----|--3---3-|--3-----|------4-|--------|3-----1-|
A|--------|--------|--------|--------|--------|--------|------3-|--------|
E|--------|--------|--------|--------|--------|--------|--------|--------|

Measure 70 (Changes Key)
G|1-------|------0-|1---1-2-|3-6-8---|1-------|--1-4---|3-----0-|1-------|
D|--------|--0-1---|--1-----|------2-|--1---3-|------4-|--2-1---|--4-3-2-|
A|----1-3-|4-------|--------|--------|--------|4-------|--------|--------|
E|--4-----|--------|--------|--------|----4---|--------|--------|--------|

Measure 78           Solo (Same length in measure, doubled to fit)
G|------1-|6-4-2--1|-13-10-9-8-5-1---|--01-1--|--4-3-2-|1-------|        
D|--2-3---|------1-|---------------3-|13------|--------|--3---21| 4 beats    
A|4-------|--------|-----------------|--------|4-------|----4---|  Rest  
E|--------|--------|-----------------|------4-|--------|--------|        

G|------0-|
D|-----1--|
A|--------|
E|--------|


Measure 86
G|1---5---|6--7~~--|        |1---5---|6--4~~2-|5-------|------1-|
D|--------|------1-|        |--------|--------|---1~~3-|4---4---|
A|--------|--------| x2     |--------|--------|--------|--4-----|
E|--------|--------|        |--------|--------|--------|--------|

Measure 94
G|3-5-6---|0---0-2-|4---0---|-111-11-|---11---|--------|
D|------2-|--0-----|--0-----|--------|--------|--------|
A|--------|--------|--------|--------|--------|--------|
E|--------|--------|--------|--------|-4-----4|4~~~~~~~|
Добавлено: 24.04.2012
Другие материалы по этой песне:
  • Аккорды и текст

Страница создана 24.04.2012
http://primanota.ru/erskine-hawkins/tuxedo-junction-chords.htm
Привет, Гость.
Предлагаем пройти революционный курс по гитаре.
Подарок от PrimaNota.Ru, забирай!