PrimaNota.ru - самый крупный в мире бесплатный архив песенных текстов, аккордов, табулатур и нот


Erreway - No Estas Seguro - аккорды и текст, видео

Регистрация Запомнить меня
Войти через:  Facebook Google Twitter Vk Yandex Mail.ru

Erreway - No Estas Seguro - аккорды и текст, видео

Печатать
Просмотров: 503
No Estas Seguro
Erreway
From: Lentyaj bazuk@ukr.net

ERREWAY - No estes seguro

1|-------10-----10-------10-----10-------8-----8-------10-----10----|
2|----8------8--------7------7--------5-----5-------7------7--------|
3|------------------------------------------------------------------|
4|------------------------------------------------------------------|
5|------------------------------------------------------------------|
6|------------------------------------------------------------------|

( вступление играется 2 раза )

G - 3-5-5-4-3-3
C - x-3-5-5-5-3
D - x-x-x-2-3-2

G
estar seguro
C
es venderte en cuotas
D
armarle una muralla
G
al corazon
G
dejar que te licuen
C
la pasion
D       G
estar seguro es eso

estar seguro
es sentir lo tibio
jamas quedarte
en carne viva
donde no hay incendios
no hay heridas

mal heridas


1|------------------------------------------------------------------|
2|----8p10--8--7--8---10p12--10--9p10----7p8--7--5------------------|
3|--------------------------------------------------7---------------|
4|------------------------------------------------------------------|
5|------------------------------------------------------------------|
6|------------------------------------------------------------------|

1|------------------------------------------------------------------|
2|--------------2---------------------------------------------------|
3|----3-5-2-4p5-----------------------------------------------------|
4|---------------------5-3-4p5--------------------------------------|
5|------------------------------------------------------------------|
6|------------------------------------------------------------------|

Chorus:
jamas tendras
un gran amor
pero estaras tranquilo
te sentiras seguro
y dormiras sin suenos

el mundo pasara sin vos
no sentira tu ausencia
le faltara tu amor
y tu alma clara
tendras miedo a volar,no te creceran alas


no estes seguro
baja a los mas hondo
y trata de subir sin cuerdas
llegar muy alto
y caer a ciegas
que corra sangre por tus venas

no estes seguro
el cielo en el infierno
si no enfermas hasta llorar de amor
sentir a fondo
hasta perderlo todo
sobrevivir es estar muerto

Chorus 2x
Добавлено: 23.03.2012
Другие материалы по этой песне:
  • Аккорды и текст

Страница создана 23.03.2012
http://primanota.ru/erreway/no-estas-seguro-chords.htm
Привет, Гость.
Предлагаем пройти революционный курс по гитаре.
Подарок от PrimaNota.Ru, забирай!