PrimaNota.ru - самый крупный в мире бесплатный архив песенных текстов, аккордов, табулатур и нот


Erra - Warrior - таба, видео

Регистрация Запомнить меня
Войти через:  Facebook Google Twitter Vk Yandex Mail.ru

Erra - Warrior - таба, видео

Печатать
Просмотров: 626
-------------------------------------------------------------------------------
                             Warrior - ERRA
-------------------------------------------------------------------------------
Tabbed by: Casey Walle

Tuning: G#


 0:00                                                            x2
A#|--------------------------------------------------------------0|
F |-----------------------------------------------------------13--|
C#|--------------------------------------------------------10-----|
G#|----------------------------------0h12h15------10h12h14--------|
D#|---------------------------------------------------------------|
G#|-10h12-12-12-12-12-10---15---0-00---------0-00-----------------|
                                  xx           xx


A#|----------------------------------------------0----------------|
F |------------------------------------------6--------------------|
C#|----------------------------------------5---5---7---7---7------|
G#|----------------------------------0h5h8---------5---5---5------|
D#|------------------------------------------------5---5---5------|
G#|-10h12-12-12-12-12-10---15---0-00---------------5---5---5------|
                                  xx               x   x   x

 0:14
A#|---------------------------------------------------------------|
F |---------------------------------------------------------------|
C#|---------------------------------------------------------------|
G#|------------14-------------------------------------------------|
D#|------13-------------------------------------------------------|
G#|-0-12----12----12-0-0-0-0---0-0---0-0---0-0-0-0---0-0-0-0------|
                     x x x     x     x     x x x     x x x


A#|---------------------------------------------------------------|
F |---------------------------------------------------------------|
C#|----------------------10-10------------------------------------|
G#|----------------------14-14------------------------------------|
D#|----------------13---------------------------------------------|
G#|-0-0---0-0-0-12----12-------0-0-0-0---0-0---0-0---0-0-0-0------|
    x     x x                  x x x     x     x     x x x


A#|---------------------------------------------------------------|
F |---------------------------------------------------------------|
C#|---------5~----------------------------------------------------|
G#|---------5~----------------------------------------------------|
D#|-----3---------------------------------------------------------|
G#|-0-0-3-------------0-0-0-0---0-0-0-0---0---0-0-0-0---0-0-0-0---|
    x x               x x x     x x x         x x x     x x x


A#|---------------------------------------------------------------|
F |---------------------------------------------------------------|
C#|---------------------------------------------------------------|
G#|------------------------17----17-17----------------------------|
D#|---------------------------------------------------------------|
G#|-0---0---0-0-0-0---0-15----15-------0-0-0-0---0-0---0-0--------|
            x x x                      x x x     x     x x

 0:27
A#|---------------------------------------------------------------|
F |-18------15----------------------------------------------------|
C#|---------------------------------------------------------------|
G#|-17-(x8)-15-(x8)-----------------------------------------------|
D#|-15------13----------------------------------------------------|
G#|---------------------------------------------------------------|


 0:29
A#|---------------------------------------------------------------|
F |-6----------6--------------6------13---------------------------|
C#|---------------------------------------------------------------|
G#|-7-(x5)-----7-(x5)---------7-(x6)-15-(x8)----------------------|
D#|-5----------5--------------5------13---------------------------|
G#|--------0----------0-0-0---------------------------------------|
                        x


A#|---------------------------------------------------------------|
F |-6----------6----------18------15------------------------------|
C#|---------------------------------------------------------------|
G#|-7-(x5)-----7-(x5)-----17-(x8)-15-(x8)-------------------------|
D#|-5----------5----------15------13------------------------------|
G#|--------0----------0-------------------------------------------|

 
 0:37
A#|-0~---------------------------------------10/13-10----10----10-|
F |-5~-----3h6------8-10-8----10-11-10----------------------13----|
C#|------------------------10----------12-10----------12----------|
G#|---------------------------------------------------------------|
D#|---------------------------------------------------------------|
G#|---------------------------------------------------------------|



A#|-17b--------------12b-------------0---0~-----------------------|
F |-------13h15p13---------10---8--------5~-----3h6------8-10-8---|
C#|-------------------------------10----------------------------10|
G#|---------------------------------------------------------------|
D#|---------------------------------------------------------------|
G#|---------------------------------------------------------------|


 0:52                                                            x2
A#|-20-------22----------------17-------13------------------------|
F |-------------------20----------------------------18----18------|
C#|----17/19----19/17-------------14/12---------------------------|
G#|----------------------17/15-------------15-12/15----15----15---|
D#|---------------------------------------------------------------|
G#|---------------------------------------------------------------|



A#|----------------------22-------20------------------------------|
F |-18/15-------18------------------------------------------------|
C#|----------------17/19----19/17----17---------------------------|
G#|-------12/15---------------------------------------------------|
D#|---------------------------------------------------------------|
G#|---------------------------------------------------------------|



A#|-20-------22----------------17-------13------------------------|
F |-------------------20----------------------------18----18------|
C#|----17/19----19/17-------------14/12---------------------------|
G#|----------------------17/15-------------15-12/15----15----15---|
D#|---------------------------------------------------------------|
G#|---------------------------------------------------------------|



A#|----------------------------22---------------------------------|
F |-18/15-------18------------------------------------------------|
C#|----------------------17/19----19/17---------------------------|
G#|-------12/15----17/19------------------------------------------|
D#|---------------------------------------------------------------|
G#|---------------------------------------------------------------|


 1:07
A#|---------------------------------------------------------------|
F |---------------------------------------------------------------|
C#|---------------------------------------------------------------|
G#|------------14-------------------------------------------------|
D#|------13-------------------------------------------------------|
G#|-0-12----12----12-0-0-0-0---0-0---0-0---0-0-0-0---0-0-0-0------|
                     x x x     x     x     x x x     x x x


A#|---------------------------------------------------------------|
F |---------------------------------------------------------------|
C#|----------------------10-10------------------------------------|
G#|----------------------14-14------------------------------------|
D#|----------------13---------------------------------------------|
G#|-0-0---0-0-0-12----12-------0-0-0-0---0-0---0-0---0-0-0-0------|
    x     x x                  x x x     x     x     x x x


A#|---------------------------------------------------------------|
F |---------------------------------------------------------------|
C#|---------5~----------------------------------------------------|
G#|---------5~----------------------------------------------------|
D#|-----3---------------------------------------------------------|
G#|-0-0-3-------------0-0-0-0---0-0-0-0---0---0-0-0-0---0-0-0-0---|
    x x               x x x     x x x         x x x     x x x


A#|---------------------------------------------------------------|
F |---------------------------------------------------------------|
C#|---------------------------------------------------------------|
G#|------------------------17----17-17----------------------------|
D#|---------------------------------------------------------------|
G#|-0---0---0-0-0-0---0-15----15-------0-0-0-0---0-0---0-0--------|
            x x x                      x x x     x     x x

 1:20
A#|---------------------------------------------------------------|
F |-18------15----------------------------------------------------|
C#|---------------------------------------------------------------|
G#|-17-(x8)-15-(x8)-----------------------------------------------|
D#|-15------13----------------------------------------------------|
G#|---------------------------------------------------------------|


 1:22
A#|-0~---------------------------------------10/13-10----10----10-|
F |-5~-----3h6------8-10-8----10-11-10----------------------13----|
C#|------------------------10----------12-10----------12----------|
G#|---------------------------------------------------------------|
D#|---------------------------------------------------------------|
G#|---------------------------------------------------------------|



A#|-17b--------------12b-------------0---0~-----------------------|
F |-------13h15p13---------10---8--------5~-----3h6------8-10-8---|
C#|-------------------------------10----------------------------10|
G#|---------------------------------------------------------------|
D#|---------------------------------------------------------------|
G#|---------------------------------------------------------------|


 1:37                                                           x16
A#|-17p13---t20/22p13t22p13h15h20------p13h15h17t20---------------|
F |------h15---------------------h15h17---------------------------|
C#|---------------------------------------------------------------|
G#|---------------------------------------------------------------|
D#|---------------------------------------------------------------|
G#|---------------------------------------------------------------|


 2:07
A#|---------------------------------------------------------------|
F |---------------------------------------------------------------|
C#|---------------------------------------------------------------|
G#|---------------------------------------------------------------|
D#|---------------------------------------------------------------|
G#|-0-0-0-0-0-0-0-0-0-0-0-0-0-0-0-0-0-0-0-0-0-0-0-0-0-0-0-0-0-10--|
        x   x x x x x x x x x x   x     x   x x x x     x x x                    


A#|---------------------------------------------------------------|
F |---------------------------------------------------------------|
C#|---------------------------------------------------------------|
G#|---------------------------------------------------------------|
D#|---------------------------------------------------------------|
G#|-0-0-0-0-0-0-0-0-0-0-0-0-0-0-0-0-0-0-0-0-0-0-0-0-0-0-0-0-0-10--|
        x   x x x x x x x x x   x   x   x x x x x x     x x x


A#|---------------------------------------------------------------|
F |---------------------------------------------------------------|
C#|---------------------------------------------------------------|
G#|---------------------------------------------------------------|
D#|---------------------------------------------------------------|
G#|-0-0-0-0-0-0-0-0-0-0-0-0-0-0-0-0-0-0-0-0-0-0-0-0-0-0-0-0-0-10--|
        x   x x x x x x x x x x   x     x   x x x x     x x x      

 2:19
A#|---------------------------------------------------------------|
F |---------------------------------------------------------------|
C#|---------------------------------------------------------------|
G#|------12----15---------------------12---------------------10---|
D#|--------------------------10------------------------12---------|
G#|-0-10----10----12-0-10-12----12-10----12-10-12-0-10----10----0-|



A#|-----------------------------3*--------------------------------|
F |------------------------------3*-------------------------------|
C#|-------------------------------3*------------------------------|
G#|-------------0-0---0---0-0-0----3*------------0----------------|
D#|---10--------0-0---0---0-0-0-----3*---------3------------------|
G#|-8----0------0-0---0---0-0-0--------0-0-3h5-----0-0-0-0-0-0-0-0|
                x x   x   x x x        x x         x x x   x   x 


A#|---------------------------------------------------------------|
F |---------------------------------------18------15--------------|
C#|---------------------------------------------------------------|
G#|-000---0-0-----------------------------17-(x8)-15-(x8)---------|
D#|-111---1-1---------5-------------------15------13--------------|
G#|-----------0-0---0-----0-0-0---3-0-0---------------------------|
    xxx     x


A#|---------------3*----------------------------------------------|
F |----------------3*---------------------------------------------|
C#|-----------------3*--------------------------------------------|
G#|------------------3*------------0-000---0-0--------------------|
D#|-------------------3*---------3---111---1-1--------------------|
G#|-000-0---0-0-0--------0-0-3h5---------------0-0---0---0--------|
    xxx x   x x x        x x         xxx     x 

 2:33                                                            x2
A#|---------------------------------------------------------------|
F |-6----------6--------------6------13---------------------------|
C#|---------------------------------------------------------------|
G#|-7-(x5)-----7-(x5)---------7-(x6)-15-(x8)----------------------|
D#|-5----------5--------------5------13---------------------------|
G#|--------0----------0-0-0---------------------------------------|
                        x


A#|---------------------------------------------------------------|
F |-6----------6----------18------15------------------------------|
C#|---------------------------------------------------------------|
G#|-7-(x5)-----7-(x5)-----17-(x8)-15-(x8)-------------------------|
D#|-5----------5----------15------13------------------------------|
G#|--------0----------0-------------------------------------------|


 2:48                                                           x16
A#|-17p13---t20/22p13t22p13h15h20------p13h15h17t20---------------|
F |------h15---------------------h15h17---------------------------|
C#|---------------------------------------------------------------|
G#|---------------------------------------------------------------|
D#|---------------------------------------------------------------|
G#|---------------------------------------------------------------|


 3:19                                                            x2
A#|-20-------22----------------17-------13------------------------|
F |-------------------20----------------------------18----18------|
C#|----17/19----19/17-------------14/12---------------------------|
G#|----------------------17/15-------------15-12/15----15----15---|
D#|---------------------------------------------------------------|
G#|---------------------------------------------------------------|



A#|----------------------22-------20------------------------------|
F |-18/15-------18------------------------------------------------|
C#|----------------17/19----19/17----17---------------------------|
G#|-------12/15---------------------------------------------------|
D#|---------------------------------------------------------------|
G#|---------------------------------------------------------------|



A#|-20-------22----------------17-------13------------------------|
F |-------------------20----------------------------18----18------|
C#|----17/19----19/17-------------14/12---------------------------|
G#|----------------------17/15-------------15-12/15----15----15---|
D#|---------------------------------------------------------------|
G#|---------------------------------------------------------------|



A#|----------------------------22---------------------------------|
F |-18/15-------18------------------------------------------------|
C#|----------------------17/19----19/17---------------------------|
G#|-------12/15----17/19------------------------------------------|
D#|---------------------------------------------------------------|
G#|---------------------------------------------------------------|


 3:34
A#|---------------------------------------------------------------|
F |---------------------------------------------------------------|
C#|---------------------------------------------------------------|
G#|---------------------------------------------------------------|
D#|---------------------------------------------------------------|
G#|-0-0-0-0-0-0-0-0-0-0-0-0-0-0-0-0-0-0-0-0-0-0-0-0-0-0-0-0-0-10--|
        x   x x x x x x x x x x   x     x   x x x x     x x x                    


A#|---------------------------------------------------------------|
F |---------------------------------------------------------------|
C#|---------------------------------------------------------------|
G#|---------------------------------------------------------------|
D#|---------------------------------------------------------------|
G#|-0-0-0-0-0-0-0-0-0-0-0-0-0-0-0-0-0-0-0-0-0-0-0-0-0-0-0-0-0-10--|
        x   x x x x x x x x x   x   x   x x x x x x     x x x


A#|---------------------------------------------------------------|
F |---------------------------------------------------------------|
C#|---------------------------------------------------------------|
G#|---------------------------------------------------------------|
D#|---------------------------------------------------------------|
G#|-0-0-0-0-0-0-0-0-0-0-0-0-0-0-0-0-0-0-0-0-0-0-0-0-0-0-0-0-0-10--|
        x   x x x x x x x x x x   x     x   x x x x     x x x      


A#|---------------------------------------------------------------|
F |---------------------------------------------------------------|
C#|---------------------------------------------------------------|
G#|------12----15---------------------12---------------------10---|
D#|--------------------------10------------------------12---------|
G#|-0-10----10----12-0-10-12----12-10----12-10-12-0-10----10----0-|



A#|---------------------------------------------------------------|
F |---------------------------------------------------------------|
C#|---------------------------------------------------------------|
G#|---------------------------------------------------------------|
D#|---10----------------------------------------------------------|
G#|-8----0--------------------------------------------------------|
                
Добавлено: 13.09.2015
Другие материалы по этой песне:
  • Аккорды и текст

Страница создана 13.09.2015
http://primanota.ru/erra/warrior-chords.htm
Привет, Гость.
Предлагаем пройти революционный курс по гитаре.
Подарок от PrimaNota.Ru, забирай!