PrimaNota.ru - самый крупный в мире бесплатный архив песенных текстов, аккордов, табулатур и нот


Erquiaga, Steve - Pick It Up - таба, видео

Регистрация Запомнить меня
Войти через:  Facebook Google Twitter Vk Yandex Mail.ru

Erquiaga, Steve - Pick It Up - таба, видео

Печатать
Просмотров: 75
Date: Tue, 10 Jun 2003 10:37:24 -0700
Mime-Version: 1.0
Content-Type: text/plain; format=flowed



Title : Pick It Up
Artist : Steve Erquiaga
Tabbed By : Ron Slade
Style : Jazz ^Ö (soukous style vamp)
Time Signature: 4/4
Tempo 120
This TAB is for part A only

r=rest (don^Òt let sting ring through this time)

The recording includes 4 guitar parts, closely woven in rhythm, however
any of the 3 treble parts are fun to play by themselves (as a comp).
This is a fun and interesting vamp.  The song is well named ^Ö no matter
how fast you play it, you will have to ^Ópick it up^Ô a bit to try to
reach tempo ^Ö it is a very quick tune.

play first note first time only
(Repeat for 8 bars total, or as long as desired for vamp)

Guitar #2
Muted
E---|---------------------------------|---------------------------------
B-5-|-r-5-----5-------2-2-3-5-r-------|-------------------------------5-
G---|-----2-------2-2---------------4-|-r-4-2-2-----------2-2-2-r-------
D---|---------------------------------|---------5-5-4-4-5---------------
A---|---------------------------------|---------------------------------
E---|---------------------------------|---------------------------------
  a  1 e & a 2 e & a 3 e & a 4 e & a   1 e & a 2 e & a 3 e & a 4 e & a

Guitar #3
Muted
E-r-|-5----5-r--------5-----5-r-------|---------------------------------
B-r-|-7----7-r--------7-----7-r-----3-|-r-3-2-2-----------2-2-2-r-------
G---|---------------------------------|---------4-4-2-2-4---------------
D---|---------------------------------|---------------------------------
A---|---------------------------------|---------------------------------
E---|---------------------------------|---------------------------------
  a  1 e & a 2 e & a 3 e & a 4 e & a   1 e & a 2 e & a 3 e & a 4 e & a

for timing, refer to the recording ^Ö too complex for TAB notation
Guitar #1
E-9-|-r--9--9^×-9^×9s-10-10-10-10-10--9-|---------------------------------
B10-|-r-10-10-10-10s12-12-12-12-12-10 |-r-10-10-10-------8-8-12-10------
G---|---------------------------------|-r-11-11-11-------9-9-12-11------
D---|---------------------------------|---------------------------------
A---|---------------------------------|---------------------------------
E---|---------------------------------|---------------------------------


    |-r--9--9^×-9^×9s-10-10-10-10-10--9-|---------------------------------
    |-r-10-10-10-10s12-12-12-12-12-10 |-r-5---5^×5^×13s14-12---9----------
    |---------------------------------|-r-7---7-7----12-12--10----------
    |---------------------------------|--------------12-12--------------
    |---------------------------------|---------------------------------
    |---------------------------------|---------------------------------

_________________________________________________________________
     
Добавлено: 02.08.2013
Вам также может быть интересно:
Другие материалы по этой песне:
  • Аккорды и текст

Страница создана 02.08.2013
http://primanota.ru/erquiaga-steve/pick-it-up-chords.htm
Привет, Гость.
Предлагаем пройти революционный курс по гитаре.
Подарок от PrimaNota.Ru, забирай!