PrimaNota.ru - самый крупный в мире бесплатный архив песенных текстов, аккордов, табулатур и нот


Ernesto Lecuona - Malaguena - таба, видео

Регистрация Запомнить меня
Войти через:  Facebook Google Twitter Vk Yandex Mail.ru

Ernesto Lecuona - Malaguena - таба, видео

Печатать
Просмотров: 576
Авторы музыки: Ernesto Lecuona

----------------------------------------------------------------------------
                                 Malaguena
----------------------------------------------------------------------------
Tabbed by:Jjjj187                                                           
Email:jfridge5392@msn.com    
(IT WILL HELP IF YOU USE UP AND DOWN PICKING FOR THE BEGINNING CORD PART)
Tuning:standard
                                                               PLAY TWICE
e|--0-0-0-0-0-0-0-0-0-0-0--0-0-0-0-0-0-0-0-0-0-0--0-0-0--------------------|
B|--0-0-0-0-0-0-0-0-0-0-0--0-0-0-0-0-0-0-0-0-0-0--0-0-0--------------------|
G|--1-1-1-1-1-1-1-1-1-1-1--2-2-2-2-2-2-2-2-2-2-2--3-2-1--------------------|
D|--2-2-2-2-2-2-2-2-2-2-2--3-3-3-3-3-3-3-3-3-3-3--4-3-2--------------------|
A|--2-2-2-2-2-2-2-2-2-2-2--3-3-3-3-3-3-3-3-3-3-3--4-3-2--------------------|
E|--0-0-0-0-0-0-0-0-0-0-0--0-0-0-0-0-0-0-0-0-0-0--0-0-0--------------------|


e|-0-1-4-1--0------------0-----------------------0--0-1-4-1--0-----------0-|
B|----------0--0--3-1-0--1----------0-1-0-3-1-0--0-----------0--0-3-1-0--1-|
G|----------1------------2----2P1H2--------------1-----------1-----------2-|
D|----------2------------2-----------------------2-----------2-----------2-|
A|----------2------------0-----------------------2-----------2-----------0-|
E|----------0------------0-----------------------0-----------0-----------0-|


e|-----------------------------------------------------------0-0--12+--5+--|
B|------------0-1-0-3-1-0------------------------------------0-0--12+--5+--|
G|-----2P1H2--------------2----1H2P1-------------------------1-2-----------|
D|-------------------------------------3-2-0-----------------2-3-----------|
A|---------------------------------------------3-2-0---------2-3-----------|
E|----------------------------------------------------3-1-0--0-0-----------|



| / SLIDE UP
| \ SLIDE DOWN
| H HAMMER-ON
| P PULL-OFF
| ~ VIBRATO
| + HARMONIC
| X MUTE NOTE
============================================================================
Добавлено: 15.06.2012
Вам также может быть интересно:
Другие материалы по этой песне:

Страница создана 22.02.2012
http://primanota.ru/ernesto-lecuona/malaguena-chords.htm
Привет, Гость.
Предлагаем пройти революционный курс по гитаре.
Подарок от PrimaNota.Ru, забирай!