PrimaNota.ru - самый крупный в мире бесплатный архив песенных текстов, аккордов, табулатур и нот


Ernesto Lecuona - Danza Lecumi - таба, видео

Регистрация Запомнить меня
Войти через:  Facebook Google Twitter Vk Yandex Mail.ru

Ernesto Lecuona - Danza Lecumi - таба, видео

Печатать
Просмотров: 129
order of measures: 1-77, 2-38, 78-85

tuning: DADGBE     time: 2/4     key: D major  

1                          D.S.
|---------------|---------|---------------|---------|
|---------------|---------|---------------|---------|
|---------------|---2-2---|---------------|---2-2---|
|-----------4---|---------|-----------4---|---------|
|---0-2-(2)---0-|-2-----0-|---0-2-(2)---0-|-2-----0-|
|-0-------------|---------|-0-------------|---------|

5
|-5---5-(5)-----|-(5)---7---|-2---2-(2)-----|-(2)-------|
|-3---3-(3)-----|-(3)---7---|-3---3-(3)-----|-(3)---3---|
|---------------|-----------|---------------|-----2-2---|
|-4---4-(4)-4---|-----7-7---|-4---4-(4)-4---|-----------|
|---0-2-(2)---0-|---------0-|---0-2-(2)---0-|--2------0-|
|-0-------------|--9--------|-0-------------|-----------|

9
|-0---0-(0)-----|-(0)---2---|---------------|-----------|
|-0---0-(0)-----|-(0)---2---|-3---3-(3)-----|-(3)-------|
|-0---0-(0)-----|-(0)-2-2---|-2---2-(2)-----|-(2)-2-2---|
|-----------2---|-----------|-4---4-(4)-4---|-----------|
|---0-2-(2)---0-|--2------0-|---0-2-(2)---0-|--2------0-|
|-0-------------|-----------|-0-------------|-----------|

13
|-5---5-(5)-----|-(5)-7-9-5-7-|-(7)---2-(2)-----|-(2)-------|
|-3---3-(3)-----|-(3)-7-7-7-7-|-(7)---3-(3)-----|-(3)---3---|
|---------------|-------------|-----------------|-----2-2---|
|-4---4-(4)-4---|-----7-7-----|-------4-(4)-4---|--4--------|
|---0-2-(2)---0-|---------0---|-----0-2-(2)---0-|---------0-|
|-0-------------|--9----------|--0--------------|-----------|

17
|-0---0-(0)-----|-(0)---2---|---------------|-----------|
|-0---0-(0)-----|-(0)---2---|-3---3-(3)-----|-(3)---3---|
|-0---0-(0)-----|-(0)-2-2---|-2---2-(2)-----|-(2)-2-2---|
|-----------2---|-----------|-4---4-(4)-4---|-----------|
|---0-2-(2)---0-|--2------0-|---0-2-(2)---0-|--2------0-|
|-0-------------|-----------|-0-------------|-----------|

21
|-7---7-(7)-----|-(7)---10---|-6---6-(6)-----|-(6)---10---|
|-8---8-(8)-----|-(8)----8---|-8---8-(8)-----|-(8)----8---|
|-7---7-(7)-----|-(7)-7--7---|-7-------------|-----7--7---|
|---0-------9-0-|--------9-0-|---0-------8-0-|--------8-0-|
|-----7-(7)-----|--7---------|-----7-(7)-----|--7---------|
|-5-------------|------------|-5-------------|------------|

25
|-5---5-(5)-----|-(5)-7-9-5-7-|-(7)---2-(2)-----|-(2)---------|
|-3---3-(3)-----|-(3)-7-7-7-7-|-(7)---3-(3)-----|-(3)---3---4-|
|---------------|-------------|-----------------|-----2-2-----|
|-4---4-(4)-4---|-----7-7-----|-------4-(4)-4---|-------------|
|---0-2-(2)---0-|---------0---|-----0-2-(2)---0-|--2------0---|
|-0-------------|--9----------|--0--------------|-------------|

29
|-0---0-(0)-----|-(0)---2---|---------------|-------------|
|-0---0-(0)-----|-(0)---2---|-3---3-(3)-----|-(3)---3---4-|
|-0---0-(0)-----|-(0)-2-2---|-2---2-(2)-----|-(2)-2-2-----|
|-----------2---|-----------|-4---4-(4)-4---|-------------|
|---0-2-(2)---0-|--2------0-|---0-2-(2)---0-|--2------0---|
|-0-------------|-----------|-0-------------|-------------|

33
|-0---0-(0)-----|-(0)---2---|---------------|-------2---|
|-0---0-(0)-----|-(0)---2---|-3---3-(3)-----|-(3)---2---|
|-0---0-(0)-----|-(0)-2-2---|-2---2-(2)-----|-(2)-2-2---|
|-----------2---|-----------|-4---4-(4)-4---|-----------|
|---0-2-(2)---0-|--2------0-|---0-2-(2)---0-|--2------0-|
|-0-------------|-----------|-0-------------|-----------|

37                   To Coda
|---------------|-------2---|---------------|-----------|
|-3---3-(3)-----|-(3)---2---|-3---3-(3)-----|-(3)-------|
|-2---2-(2)-----|-(2)-2-2---|-2---2-(2)-----|-(2)-2-2---|
|-4---4-(4)-4---|-----------|-4---4-(4)-4---|-----------|
|---0-2-(2)---0-|--2------0-|---0-2-(2)---0-|--2------0-|
|-0-------------|-----------|-0-------------|-----------|

41
|---------------|---------||-12p10----|-12p10----|-12p10------------------10-|
|---------------|---------||----12----|----11----|----10---------------10----|
|---------------|---2-2---||-----0----|-----0----|----11-11---------11-------|
|-----------4---|---------||----------|----------|--------------<12>---------|
|---0-2-(2)---0-|-2-----0-||----------|----------|----------<12>-------------|
|-0-------------|---------||----------|----------|---------------------------|

46
|-14-<19>-17-(17)-14----|-12p10---------|-12p10---------|
|--------------------15-|----12-------0-|----11---------|
|-----------------------|-----0---------|-----0---------|
|-----------------------|-------12-12-0-|-------12-12-8-|
|-----------------------|---------------|-------------5-|
|-----------------------|-------------5-|-------------5-|

49
|-12p10--------------------10-|-14-<19>-17-(17)-14----|-12h14p12---12h14p12---|
|----10-----------------10----|--------------------15-|-14---------14---------|
|----11-11-----------11-------|-----------------------|----------0----------0-|
|---------------<12>----------|-----------------------|-----------------------|
|----------<12>---------------|-----------------------|-------------------0---|
|-----------------------------|-----------------------|-----------------------|

52
|-10h12p10----10h12p10----|-------------------------|-----------------------|
|-10----------10----------|-10h12p10----10h12p10----|-10h12p10---10h12p10---|
|----------11----------11-|-12----------12----------|-11---------11---------|
|-------------------------|----------11----------11-|----------0----------0-|
|--------------------0----|--------------------0----|-----------------------|
|-------------------------|-------------------------|-------------------0---|

55
|-10h12p10---10h12p10---|-10h12p10----10h12p10----|-------------------------|
|-12---------12---------|-10----------10----------|-10h12p10----10h12p10----|
|----------0----------0-|----------11----------11-|-12----------12----------|
|-----------------------|-------------------------|----------11----------11-|
|-----------------------|-------------------------|--------------------0----|
|-------------------0---|--------------------0----|-------------------------|

58
|----------------2-5-|-12p10-----|-12p10-----|-12p10--------------------10--|
|--------------3-----|----12-----|----11-----|----10-----------------10-----|
|------------2-------|-----0-----|-----0-----|----11-11-----------11--------|
|-<12>---0-4-----0---|-----------|-----------|---------------<12>-----------|
|------0-------------|-----------|-----------|----------<12>----------------|
|---0----------------|---------0-|---------0-|------------------------------|

62
|-14-<19>-17-(17)-14----|-12p10---------|
|--------------------15-|----12-------0-|
|-----------------------|-----0---------|
|-----------------------|-------12-12-0-|
|-----------------------|---------------|
|-----------------------|-------------5-|

64
|-12p10---------|-12p10--------------------10-|
|----11---------|----10-----------------10----|
|-----0---------|----11-11-----------11-------|
|-------12-12-8-|---------------<12>----------|
|-------------5-|----------<12>---------------|
|-------------5-|-----------------------------|

66
|-14-<19>-17-(17)-14----|-12h14p12---12h14p12---|-10h12p10----10h12p10----|
|--------------------15-|-14---------14---------|-10----------10----------|
|-----------------------|----------0----------0-|----------11----------11-|
|-----------------------|-----------------------|-------------------------|
|-----------------------|-------------------0---|--------------------0----|
|-----------------------|-----------------------|-------------------------|

69
|-------------------------|-----------------------|-10h12p10---10h12p10---|
|-10h12p10----10h12p10----|-10h12p10---10h12p10---|-12---------12---------|
|-12----------12----------|-11---------11---------|----------0----------0-|
|----------11----------11-|----------0----------0-|-----------------------|
|--------------------0----|-----------------------|-----------------------|
|-------------------------|-------------------0---|-------------------0---|

72
|-10h12p10----10h12p10----|-------------------------|------------5-5(17)-|
|-10----------10----------|-10h12p10----10h12p10----|--------------------|
|----------11----------11-|-12----------12----------|--------2-2---------|
|-------------------------|----------11----------11-|-<12>---------------|
|-------------------------|--------------------0----|------0-------------|
|--------------------0----|-------------------------|---0----------------|


75                                          D.S. al Coda
|-(5(17))---5---|-5-------5-5(17)-|-(5(17))-5-5-----------|
|-----------7---|-8---------------|-------------2-2-------|
|-----------5---|-6---------------|-----------------2-2---|
|---------------|-----7-7---------|-----------------------|
|---------0---0-|---0-------------|---------------------0-|
|---------------|-----------------|-----------------------|

78
|---------------|---------|------------------------------|
|-3-------------|---------|----------<12>-(<12>)-<7>-----|
|-2-------------|---2-2---|------------------------------|
|-4---------4---|---------|------<7>-----------------<7>-|
|---0-2-(2)---0-|-2-----0-|-<12>-------------------------|
|-0-------------|---------|-<12>-------------------------|

81
|--------5(17)-5(17)------|-12p10----|-12p10----|-12p10--^14--|---------||
|--<12>-------------------|----12----|----11----|----10--^10--|---------||
|-------------------------|-----0----|-----0----|----11--^11--|---------||
|--------------------<12>-|----------|----------|----------0--|-0-------||
|-(<12>)------------------|----------|----------|-------------|---------||
|-(<12>)------------------|----------|----------|-------------|-0-------||
Добавлено: 22.07.2012
Вам также может быть интересно:
Другие материалы по этой песне:

Страница создана 20.06.2012
http://primanota.ru/ernesto-lecuona/danza-lecumi-chords.htm
Привет, Гость.
Предлагаем пройти революционный курс по гитаре.
Подарок от PrimaNota.Ru, забирай!