PrimaNota.ru - самый крупный в мире бесплатный архив песенных текстов, аккордов, табулатур и нот


Erlend Ye - Lies Become Part Of Who You Are - таба, видео

Регистрация Запомнить меня
Войти через:  Facebook Google Twitter Vk Yandex Mail.ru

Erlend Ye - Lies Become Part Of Who You Are - таба, видео

Печатать
Просмотров: 41
-------------------------------------------------------------------------------
                             Lies Become Part of Who You Are - Erlend Øye
-------------------------------------------------------------------------------
Tabbed by: Mateus Rangel
E-mail:mateusmrangel@hotmail.com

Tuning: Standart

Comment: This version doesn't need capo, but you can put in the third Fret if you want :)

Enjoy ;)

main riff:

     |                                         |
     | D# maj7 | D m | C m7 | C 7sus4(*)|  A#  |  (*)(sometimes the music change to this C m7 )
     |                                         |
e|--------3------5------3-------3-------------------------------6------------|
B|--------3------6------4-------6----------3--------------------4------------|
G|--------3------5------3-------3----------3--------------------3------------|
D|--------5------7------5-------5----------3--------------------5------------|
A|--------6------5------3-------3----------4--------------------3------------|
E|---------------------------------------------------------------------------|

intro guitar lead:

e|----------------------------------------|-----------------------------------|
B|----------------------------------------|-----------------------------------|
G|--------7---8--5-----7---8--5-------7---|----5--7---8--5------------5-----7-|
D|-------------------8-------------8------|-8---------------8---5--8-----8----|
A|----------------------------------------|-----------------------------------|
E|----------------------------------------|-----------------------------------|

e|----------------------------------------|------------------------------------|
B|----------------------------------------|------------------------------------|
G|----------5--7--8--5-----7--8--5------7-|----5--7---8---5-----------5------7-|
D|-------8--------------8-----------8-----|-8---------------8---5---8-----8----|
A|----------------------------------------|------------------------------------|
E|----------------------------------------|------------------------------------|

the other guitar lead part, in the pre final strophe part:

e|---------------------------------------------------------------------------|
B|---------------------------------------------------------------------------|
G|---10-10-10--7-8-10--7-------------7---------------------------------------|
D|------------------------8-8-8--10----8----5-5-5--7--8----------------------|
A|-------------------------------------------------------8-------------------|
E|---------------------------------------------------------------------------|



''Like a bag,you have to carry it around ... Like a watch,you have to wear it everyday.'' part

     D# maj7    |  D m

e|-------3--3--------5---8--5------------------------------------------------|
B|-------3-h4--------6---6--6------------------------------------------------|
G|-------3--3--------5---5--5------------------------------------------------|
D|-------5--5--------7---7--7------------------------------------------------|
A|-------6--6--------5---5--5------------------------------------------------|
E|---------------------------------------------------------------------------|


Final riff

       D# maj7   |     D m   |    D# maj7  |    G m7

e|-------3-3-3------5-0-5--------6-0-6----------10-0--10-----------------------|
B|-------3 4-3------6-6-6--------8-8-8----------11-11-11-----------------------|
G|-------3-3-3------5-5-5--------7-7-7----------10-10-10-----------------------|
D|-------5-5-5------7-7-7--------8-8-8----------12-12-12-----------------------|
A|-------6-6-6------5-0-5--------6-0-6----------10-0--0------------------------|
E|-----------------------------------------------------------------------------|

in the final repeat of the final riff, play this  variation of G m7
e|----13-----------------------------------------------------------------------|
B|----11-----------------------------------------------------------------------|
G|----10-----------------------------------------------------------------------|
D|----12-----------------------------------------------------------------------|
A|----10-----------------------------------------------------------------------|
E|-----------------------------------------------------------------------------|




************************************

| /   slide up
| \   slide down
| h   hammer-on
| p   pull-off
| ~   vibrato
| +   harmonic
| x   Mute note
| b   Bend
| pb  Pre-bend
| br  Bend release
| pbr Pre-bend release
| brb Bend release bend

************************************
Добавлено: 22.05.2016
Другие материалы по этой песне:
  • Аккорды и текст

Страница создана 22.05.2016
http://primanota.ru/erlend-ye/lies-become-part-of-who-you-are-chords.htm
Привет, Гость.
Предлагаем пройти революционный курс по гитаре.
Подарок от PrimaNota.Ru, забирай!