PrimaNota.ru - самый крупный в мире бесплатный архив песенных текстов, аккордов, табулатур и нот


Eris Is My Homegirl - Crab This Way - таба, видео

Регистрация Запомнить меня
Войти через:  Facebook Google Twitter Vk Yandex Mail.ru

Eris Is My Homegirl - Crab This Way - таба, видео

Печатать
Просмотров: 86
Hi, this is tab for "Crab this way".This is not perfect.By ear.
MY COVER FOR THIS SONG: 

http://www.youtube.com/watch?v=n-bd5Rn9Mjc

ERIS IS MY HOMEGIRL OFFICIAL FACEBOOK :

http://www.facebook.com/ErisIsMyHomegirl

* - P.M
+ - Natural harmonic
~ - Vibrato





0:28 - 0:53 :
C#]--------------------------------------------------------------------------------|
G#]--------------------------------------------------------------------------------|
 E]--------------------------------------------------------------------------------|
 B]---------------------------------------------------3p0-5p0-5p0-7p0--------------|
F#]-000-000--0-000-0-000--------000-000--0-000-0-000-------------------------------|
 B]-000-000--0-000-0-000--3b3b--000-000--0-000-0-000-------------------------------|
    *** ***  * *** * ***        *** ***  * *** * ***

C#]--------------------------------------------------------------------------------|
G#]----------------------------------------------------12~12~----------------------|
 E]----------------------------------------------------15~15~----------------------|
 B]--------------------------------------------------------------------------------|
F#]-000-000--0-000-0-000--------000-000--0-000-0-000-------------------------------|
 B]-000-000--0-000-0-000--3b3b--000-000--0-000-0-000-------------------------------|
    *** ***  * *** * ***        *** ***  * *** * ***

C#]--------------------------------------------------------------------------------|
G#]--------------------------------------------------------------------------------|
 E]--------------------------------------------------------------------------------|
 B]---------------------------------------------------3p0-5p0-5p0-7p0--------------|
F#]-000-000--0-000-0-000--------000-000-0-000-0-000--------------------------------|
 B]-000-000--0-000-0-000--3b3b--000-000-0-000-0-000--------------------------------|
    *** ***  * *** * ***        *** *** * *** * ***


C#]--------------------------------------------------------------------------------|
G#]----------------------------------------------------12~12~----------------------|
 E]----------------------------------------------------15~15~----------------------|
 B]--------------------------------------------------------------------------------|
F#]-000-000--0-000-0-000--------000-000--0-000-0-000----------0--------------------|
 B]-000-000--0-000-0-000--3b3b--000-000--0-000-0-000----------0--------------------|
    *** ***  * *** * ***        *** ***  * *** * ***          *


0:56 - 1:01 :
C#]--------------------------------------------------------------------------------|
G#]--------------------------------------------------------------------------------|
 E]--------------------------------------------------------------------------------|
 B]----------------------3p0-5p0-5p0-7p0-------------------------------------------|
F#]-10101010--------------------------------0-00--00000----------------------------|
 B]---------888855557777--------------------0-00--00000----------------------------|
                                            * **  *****
1:02 - 1:07
C#]--------------------------------------------------------------------------------|
G#]--------------------------------------------------------------------------------|
 E]--------------------------------------------------------------------------------|
 B]----------------------3p0-5p0-3p0-5p0-------------------------------------------|
F#]-10101010--------------------------------0-00--00000----------------------------|
 B]---------888855557777--------------------0-00--00000----------------------------|
                                            * **  *****
1:08 - 1:13
C#]--------------------------------------------------------------------------------|
G#]--------------------------------------------------------------------------------|
 E]--------------------------------------------------------------------------------|
 B]----------------------3p0-5p0-5p0-7p0-------------------------------------------|
F#]-10101010--------------------------------0-00--00000----------------------------|
 B]---------888855557777--------------------0-00--00000----------------------------|
                                            * **  *****
1:14 - 1:23
C#]--------------------------------------------------------------------------------|
G#]--------------------------------------------------------------------------------|
 E]--------------------------------------------------------------------------------|
 B]----------------------3p0-5p0-3p0-5p0-------------------------------------------|
F#]-10101010--------------------------------0-00--00000-0-00-----------------------|
 B]---------888855557777--------------------0-00--00000-0-00-00000-----------------|
                                            * **  ***** * ** 

1:24 - 1:52:
C#]--------------------------------------------------------------------------------------|
G#]--------------------------------------------------------------------------------------|
 E]--------------------------------------------------------------------------------------|
 B]-8888333377777777--------------------8888888877777777---------------------------------|
F#]-8888333377777777-000000----00000----8888888877777777-00000000000000000000000000000000|
 B]-8888333377777777-000000~10-00000~10-8888888877777777-00000000000000000000000000000000|
                     ******    *****                     ********************************

1:53 - 1:59 :
C#]-----------------------------------------------|
G#]-----------------------------------------------|
 E]------------------1010--5-5--------------------|
 B]------8-5------------------------8-5--------8-5|
F#]-0000----5-0-0-0---8-8--3-3-0000----5-0-0-0-8-5|
 B]-0000------0-0-0------------0000------0-0-0----|
    ****      * * *            ****      * * * * *

1:59 - 2:11 :
C#]--------------------------------------------------------------------------------|
G#]--------------------------------------------------------------------------------|
 E]----------------10-5-----------------10-6----------------10-5-------------------|
 B]-----8-5------------------8-5-----------------8-5------------------8-5-------8-5|
F#]-0000---5-0-0-0-8--3--0000---5-0-0-0-8--4-0000---5-0-0-0-8--3-0000----5------8-5|
 B]-0000-----0-0-0-------0000-----0-0-0------0000-----0-0-0------0000-----0-0-0----|
    ****     * * *       ****     * * *      ****     * * *      ****     * * * * *

2:25 - 2:39 :
C#]---------------------------------------------------------------------------------------|
G#]---------------------------------------------------------------------------------------|
 E]---------------------------------------------------------------------------------------|
 B]---------------------------------------------------------------------------------------|
F#]---------------------------------------------------------------------------------------|
 B]-0-0-0-0-0--0-0-0-0-0--0-0-0-0-0--0-0-0-0-0--0-0-0-0-0--0-0-0-0-0--0-0-0-0-0--0-0-0-0--|


2:39 - 2:45 :
C#]----------------+3----|
G#]-----------------+3---|
 E]------------------+3--|
 B]-------------------+3-|
F#]------0-0-0-0-------+3|
 B]-3----1-1-1-1-3-------|
         * * * *

2:45 - 2:59
C#]---------------------------------------------|\
G#]---------------------------------------------| \
 E]---------------------------------------------|  \
 B]---------------------------------------------|  / X2  
F#]-0-0-0-000--0-0-0-0000-0-0-0-000--0-0-0-0000-| /
 B]-0-0-0-000--0-0-0-1111-0-0-0-000--0-0-0-1111-|/


3:00 - 3:06
C#]----------------------------------------------------|
G#]----------------------------------------------------|
 E]----------------------------------------------------|
 B]----------------------------------------------------|
F#]-10101010--------------------------------0-00--00000|
 B]---------888855557777--------------------0-00--00000|
                                            * **  *****

3:06 - 3:12
C#]--------------------------------------------------------------------------------|
G#]--------------------------------------------------------------------------------|
 E]--------------------------------------------------------------------------------|
 B]----------------------3p0-5p0-3p0-5p0-------------------------------------------|
F#]-10101010--------------------------------0-00--00000----------------------------|
 B]---------888855557777--------------------0-00--00000----------------------------|
                                            * **  *****
3:13 - 3:18
C#]--------------------------------------------------------------------------------|
G#]--------------------------------------------------------------------------------|
 E]--------------------------------------------------------------------------------|
 B]----------------------3p0-5p0-5p0-7p0-------------------------------------------|
F#]-10101010--------------------------------0-00--00000----------------------------|
 B]---------888855557777--------------------0-00--00000----------------------------|
                                            * **  *****

3:19 - 3:27
C#]--------------------------------------------------------------------------------|
G#]--------------------------------------------------------------------------------|
 E]--------------------------------------------------------------------------------|
 B]----------------------3p0-5p0-3p0-5p0-------------------------------------------|
F#]-10101010--------------------------------0-00--00000-0-00--00000----------------|
 B]---------888855557777--------------------0-00--00000-0-00--00000----------------|
                                            * **  ***** * **  

3:28 - 3:41
C#]--------------------------------------------------------------------------------------|
G#]--------------------------------------------------------------------------------------|
 E]--------------------------------------------------------------------------------------|
 B]-8888333377777777--------------------8888888877777777---------------------------------|
F#]-8888333377777777-000000----00000----8888888877777777-00000000000000000000000000000000|
 B]-8888333377777777-000000~10-00000~10-8888888877777777-00000000000000000000000000000000|
                     ******    *****                     ********************************
3:42 - 3:57
C#]--------------------------------------------------------------------------------------|
G#]--------------------------------------------------------------------------------------|
 E]--------------------------------------------------------------------------------------|
 B]-8888333377777777--------------------8888888877777777---------------------------------|
F#]-8888333377777777-000000----00000----8888888877777777-00000000000000000000000000000000|
 B]-8888333377777777-000000~10-00000~10-8888888877777777-00000000000000000000000000000000|
                     ******    *****                     ********************************

3:57 - 4:18 
C#]-------------------------------------------------------------------------------|
G#]-11111111-10101010-8-8-8-8-8-8-5-5-5-------------------------------------------|
 E]-------------------------------------------------------------------------------|
 B]-8-8-8-8--7-7-7-7--5-5-5-5-5-5-3-3-3--0----------------------------------------|
F#]--------------------------------------0----------------------------------------|
 B]--------------------------------------0----------------------------------------|
Добавлено: 18.06.2013
Другие материалы по этой песне:
  • Аккорды и текст

Страница создана 03.06.2013
http://primanota.ru/eris-is-my-homegirl/crab-this-way-chords.htm
Привет, Гость.
Предлагаем пройти революционный курс по гитаре.
Подарок от PrimaNota.Ru, забирай!