PrimaNota.ru - самый крупный в мире бесплатный архив песенных текстов, аккордов, табулатур и нот


Erin Mccarley - Gotta Figure This Out - таба, видео

Регистрация Запомнить меня
Войти через:  Facebook Google Twitter Vk Yandex Mail.ru

Erin Mccarley - Gotta Figure This Out - таба, видео

Печатать
Просмотров: 155
-------------------------------------------------------------------------
GOTTA FIGURE THIS OUT – Erin McCarley
-------------------------------------------------------------------------
Tabbed by: Kengus

The Fmaj7s might simply be Fs and the Dm7 might be something else, but
other than that I think I got most of it. At the end, the guitar seems
to be mostly strumming. Have fun. 

Standard tuning

INTRO1 (piano)
C  F  Am  F  x2

INTRO2 (guitar)                     VERSE1
   C                                 C                               Csus4
e|---------------------------------|-------------------------------------|
B|---------------------------------|-------------------------------------|
G|-9---9---9---9---9---9---9---9---|-9---9---9---9---9---9---9---9---10--|
D|---------------------------------|-------------------------------------|
A|---------------------------------|-------------------------------------|
E|-8-8---8---8---8---8---8---8---8-|---8---8---8---8---8---8---8---8-----|
                                        Dm
e|-----------------------------------------------------------------------|
B|-----------------------------------------------------------------------|
G|---10---10---10---10---10---10---10---10---10---10---10---10---10---10-|
D|-----------------------------------------------------------------------|
A|-----------------------------------------------------------------------|
E|-8----8----8----8----8----8----8----8-10-10---10---10---10---10---10---|
           C
e|-----------------------------------------|
B|-----------------------------------------|
G|---10----9---9---9---9---9---9---9---9---| repeat verse section x2
D|-----------------------------------------|
A|-----------------------------------------|
E|-10---10-8-8---8---8---8---8---8---8---8-|

VERSE1
  C                          Csus4
I separated my heart from my head, to feel out what's inside
Dm                               C
 I don't like what I see so I say good night

Don't wake me 'cause I'm dreaming in colour
Csus4
Black and white is not my friend
Dm                           C
Candy-coated figures hold me in my bed

PRE-CHORUS
   F                Am               C                                F
e|-----------------------------------------------------------------------|
B|-----------------------------------------------------------------------|
G|-2---2---2---2----5---5---5---5----9---9---9---9---9---9---9---9----2--|
D|-----------------------------------------------------------------------|
A|-----------------------------------------------------------------------|
E|-1-1---1---1---1--5-5---5---5---5--8-8---8---8---8---8---8---8---8--1--|
                  Am               Dm
e|---------------------------------------------------------|
B|---------------------------------------------------------|
G|---2---2---2----5---5---5---5----10---10---10---10---10--|
D|---------------------------------------------------------|
A|---------------------------------------------------------|
E|-1---1---1---1--5-5---5---5---5--10-10---10---10---10----|

PRE-CHORUS
     F             Am             C
I've never been so deep inside a shadow
     F             Am           Dm
I've never been so insecure of what I know

CHORUS1
   C       F   Am      F   C       F   Am      F
e|------------------------------------------------|
B|---8-----1-----5-----1-----8-----1-----5-----1--|
G|-----9---2-------5---2-------9---2-------5---2--|
D|------------------------------------------------|
A|------------------------------------------------|
E|-8-------1---5-------1---8-------1---5-------1--|

CHORUS1
                     C   F                    Am    F
I've gotta figure it out,   I need a story to tell
                       C       F                        Am
Where's the feeling I long for,   I've gotta figure it out
  F
Before I lose you, love

INTERLUDE
  C               Csus4           Dm
e|------------------------------------------------------------------------|
B|------------------------------------------------------------------------|
G|9---9---9---9---10--10--10--10--10---10---10---10---10---10---10---10---|
D|------------------------------------------------------------------------|
A|------------------------------------------------------------------------|
E|8-8---8---8---8---8---8---8---8-10-10---10---10---10---10---10---10---10|

VERSE2 (play like verse 1, picking)
    C                                     Csus4
Big city streets are calling me loud, the busy keeps me high
     Dm                                   C
Well this quiet town is wearing me down tonight
       C
Well I know that I should stay here for a while
Csus4                    Dm
 Listen to the sound, of my shaky heart
             C
Looking for gold in the ground

PRE-CHORUS (play like before, picking)
     F             Am             C
I've never been so deep inside a shadow
     F             Am           Dm
I've never been so insecure of what I know

[originally posted on www.ultimate-guitar.com]

CHORUS2 (strum the chords)
                     C   F                    Am    F
I've gotta figure it out,   I need a story to tell
                       C       F                        Am
Where's the feeling I long for,   I've gotta figure it out
  Fmaj7
Before I lose you, before I lose you, love

INTERLUDE (pick this progression or strum the chords, repeat x2)
   Am               F                C                G
e|--------------------------------------------------------------------|
B|--------------------------------------------------------------------|
G|-5---5---5---5----2---2---2---2----9---9---9---9----4---4---4---4---| x2
D|--------------------------------------------------------------------|
A|--------------------------------------------------------------------|
E|-5-5---5---5---5--1-1---1---1---1--8-8---8---8---8--3-3---3---3---3-|

BRIDGE (strum the chords)
Dm7                        Fmaj7
    It's not ok to make you wait, to make you wonder why I
Dm7                                   Fmaj7
    Can't hold you close and give you hope
               G          Am  G  F
That this will be all right
                Am     G
I wanna make it right

CHORUS/OUTRO (strumming after two first lines)
                       C   F                    Am    F
I've gotta figure this out,   I need a story to tell
                       C       F                       Am   F
Where's the feeling I long for,   I've gotta figure it out
                        C  F                    Am    F
I've gotta figure this out,   I need a story to tell
                       C       F                       Am
Where's the feeling I long for,   I've gotta figure it out
  Fmaj7
Before I lose you
  Dm7
Before I lose you
  Fmaj7
Before I lose you, love.

=========================================================================
Comment, rate, appreciate!
Добавлено: 08.04.2012
Другие материалы по этой песне:
  • Аккорды и текст

Страница создана 08.04.2012
http://primanota.ru/erin-mccarley/gotta-figure-this-out-chords.htm
Привет, Гость.
Предлагаем пройти революционный курс по гитаре.
Подарок от PrimaNota.Ru, забирай!