PrimaNota.ru - самый крупный в мире бесплатный архив песенных текстов, аккордов, табулатур и нот


Эрик Сати - Gymnopedie No.1 - аккорды и текст, таба, видео

Регистрация Запомнить меня
Войти через:  Facebook Google Twitter Vk Yandex Mail.ru

Эрик Сати - Gymnopedie No.1 - аккорды и текст, таба, видео

Печатать
Просмотров: 500
Авторы музыки: Erik Satie

Gymnopedie No.1
Эрик Сати
Gymnopedie No 1 - Erik Satie (1866-1925)

E|------4------|------4------|------4------|------4------|
B|------2------|------4------|------2------|------4------|
G|------2------|------4------|------2------|------4------|
D|-------------|-------------|-------------|-------------|
A|--0----------|-------------|--0----------|-------------|
E|-------------|--0----------|-------------|--0----------|

E|------4---7--|--5---4------|-------------|-------------|
B|------2------|------4---4--|------4---5--|------9------|
G|------2------|------4------|--6---6------|------8------|
D|-------------|-------------|------6------|--9----------|
A|--0----------|-------------|--0----------|-------------|
E|-------------|--0----------|-------------|--0----------|

E|-------------|-------------|-------------|-------------|
B|------9------|------9------|------9------|------9------|
G|------6------|------8------|------6------|------8------|
D|--6----------|------9------|-------------|------9------| 
A|--0----------|-------------|--0----------|-------------|
E|-------------|--0----------|-------------|--0----------|

E|------4---7--|--5---4------|-------------|-------------|
B|------2------|------4---4--|------4---5--|--0----------|
G|------2------|------4------|--6---6------|------1------|
D|-------------|-------------|------6------|------1------|
A|--0----------|-------------|--0----------|-------------|
E|-------------|--0----------|-------------|--0----------|

E|-------------|--4----------|-------------|-------------|
B|--4----------|------5------|------2------|------5------|
G|------4------|------6------|------2------|------2------|
D|------6------|------6------|--4----------|-------------|
A|------6------|--4----------|-------------|-------------|
E|--4----------|-------------|--2----------|--2----------|

E|-------------|-------------|-------------|-------------|
B|------5------|-------------|--7---5------|--5----------|
G|------4------|--4---6---7--|------6---6--|------7---6--|
D|------5------|-------------|------4------|------4------|
A|-------------|--2---5------|-------------|------4------|
E|--0----------|-------------|--0----------|--0----------|

E|-------------|-------------|-------------|-------------|
B|--5----------|----------5\-|--7---8--10--|-12-/-3---5--|
G|------4------|------4------|-------------|------4------|
D|------4------|------6------|------9------|------4------|
A|------5------|------5------|-----10------|-------------|
E|--0----------|--0----------|--0----------|--0----------|

E|-------------|-------------|----------0--|--5----------|
B|--7---5------|--5----------|-------------|------2------|
G|------6---6--|------4------|------4------|------2------|
D|------4------|------4------|------6------|-------------|
A|-------------|------5------|------5------|-------------|
E|--0----------|--0----------|--0----------|--2----------|
                                              !

E|--4----------|-------------|------0---2--|------0---2--|
B|------4------|--2---0---2--|--4---0------|--4---0------|
G|------4------|------1------|-------------|------1------|
D|------6------|------1------|------4------|------1------|
A|-------------|--4----------|-------------|-------------|
E|--4----------|-------------|--2----------|--2----------|

E|------0------|--5--10------|-12----------|-------------|
B|------2------|-------------|--9----------|-------------|
G|--1----------|------7------|--9----------|-------------|
D|-------------|--4----------|--9----------|-------------|
A|-------------|--0----------|-------------|-------------|
E|--2----------|------7------|-------------|-------------|

E|------4------|------4------|------4------|------4------|
B|------2------|------4------|------2------|------4------|
G|------2------|------4------|------2------|------4------|
D|-------------|-------------|-------------|-------------|
A|--0----------|-------------|--0----------|-------------|
E|-------------|--0----------|-------------|--0----------|

E|------4---7--|--5---4------|-------------|-------------|
B|------2------|------4---4--|------4---5--|------9------|
G|------2------|------4------|--6---6------|------8------|
D|-------------|-------------|------6------|--9----------|
A|--0----------|-------------|--0----------|-------------|
E|-------------|--0----------|-------------|--0----------|

E|-------------|-------------|-------------|-------------|
B|------9------|------9------|------9------|------9------|
G|------6------|------8------|------6------|------8------|
D|--6----------|------9------|-------------|------9------|
A|--0----------|-------------|--0----------|-------------|
E|-------------|--0----------|-------------|--0----------|

E|------4---7--|--5---4------|-------------|-------------|
B|------2------|------4---4--|------4---5--|--0----------|
G|------2------|------4------|--6---6------|------1------|
D|-------------|-------------|------6------|------1------|
A|--0----------|-------------|--0----------|-------------|
E|-------------|--0----------|-------------|--0----------|

E|-------------|--4----------|-------------|-------------|
B|--4----------|------5------|------2------|------5------|
G|------4------|------6------|------2------|------2------|
D|------6------|------6------|--4----------|-------------|
A|------6------|--4----------|-------------|-------------|
E|--4----------|-------------|--2----------|--2----------|

E|-------------|--7---9--10--|-14--12---9--|-12--10---9--|
B|------5------|------7------|-----10------|-----10------|
G|------4------|------7------|-------------|-----11------|
D|------5------|-------------|-----11------|-------------|
A|-------------|-------------|-------------|-------------|
E|--0----------|--7----------|--0----------|--0----------|

E|-12----------|-------------|-14--15--17--|-19--10--12--|
B|-----12------|-----12------|-----15------|-------------|
G|-----11------|-----13------|-----16------|-----11------|
D|-----12------|-----12------|-------------|-------------|
A|-------------|-------------|-------------|-------------|
E|--0----------|--0----------|--0----------|--0----------|

E|-14--12---9--|-12----------|----------0--|--5----------|
B|-------------|-----12------|------0------|------2------|
G|------9------|-----11------|------1------|------2------|
D|-----11------|-----12------|------0------|-------------|
A|-------------|-------------|-------------|-------------|
E|--0----------|--0----------|--0----------|--2----------|
                                              !
E|--3----------|----------3--|--2---0------|--2---0------|
B|-------------|--2â€"2--------|------3---3--|------0---3--|
G|------4------|------3------|------4------|------0------|
D|------2------|------0------|------0------|------0------|
A|-------------|-------------|-------------|-------------|
E|--2----------|--2---3------|--2----------|--2----------|
    !                                             %   % 
E|-------------|-------------|--0----------|-------------|
B|-------------|------3------|--0----------|-------------|
G|--0----------|--2---2------|--0----------|-------------|
D|------2------|--2---4------|--2----------|-------------|
A|------2------|--4----------|--2----------|-------------|
E|--2----------|-------------|--0----------|-------------|
    %   %         %   %         +%
Добавлено: 01.07.2014
Другие материалы по этой песне:

Страница создана 22.02.2012
http://primanota.ru/erik-satie/gymnopedie-no1-chords.htm
Привет, Гость.
Предлагаем пройти революционный курс по гитаре.
Подарок от PrimaNota.Ru, забирай!