PrimaNota.ru - самый крупный в мире бесплатный архив песенных текстов, аккордов, табулатур и нот


Эрик Сати - Gymnopedie 1 - аккорды и текст, таба, видео

Регистрация Запомнить меня
Войти через:  Facebook Google Twitter Vk Yandex Mail.ru

Эрик Сати - Gymnopedie 1 - аккорды и текст, таба, видео

Печатать
Просмотров: 250
Gymnopedie 1
Эрик Сати
		   Title: Gymnopedie No1 by Erik Satie
QuickTab
---------------------------------------------------------------
Legend:
-------
~ keep the same note
/ slide up
\ slide down

D=6
Play it slowly and sadly in 3/4
Tabbed by Anders Karlsson


|-----------|-----------|-----------|-----------|-----9--12-|-10---9----|-2---4--5--|
|-----2-----|-----2-----|-----2-----|-----2-----|----10-----|------9--9-|-----2-----|
|-----2-----|-----1-----|-----2-----|-----1-----|----11-----|-----9-----|-----2-----|
|-----4-----|-----2-----|-----4-----|-----2-----|-----------|-----------|-----------|
|-----------|-0---------|-----------|-0---------|-----------|-0---------|-----------|
|--0--------|-----------|--0--------|-----------|-0---------|-----------|--0--------|

|-0---------|-----------|-----------|-----------|-----------|-----9--12-|-10---9----|
|-----2-----|-2---2-----|-----2-----|-----2-----|-----2-----|----10-----|------9--9-|
|-----1-----|-----2-----|-----1-----|-----2-----|-----1-----|----11-----|-----9-----|
|-----2-----|-----4-----|-----2-----|-----4-----|-----2-----|-----------|-----------|
|-0---------|-----------|-0---------|-----------|-0---------|-----------|-0---------|
|-----------|--0--------|-----------|--0--------|-----------|-0---------|-----------|

|-2---4--5--|-0---------|-4---------|-9---------|-----------|-----------|-----------|
|-----2-----|------2----|-----5-----|-----10----|-0---------~~0---------|~0---------|
|-----2-----|------1----|-----6-----|-----11----|-----------|----7------|-----2-----|
|-----------|------2----|-----6-----|-----11----|-----0-----|----7------|----2------|
|-----------|-0---------|-4---------|--9--------|----9------|-----9-----|-0---3-----|
|--0--------|-----------|-----------|-----------|-9---------|-9---------|-----------|
                                                                                                                                                                                            .                                                                 2/3 VIII- - - - - -
|-0--2---3--|-7----5-\2-|-5----3--2-|--5--------|~5-------5-|-7---8---10|-12--------|
|----0------|------0----|------0----|------5----|-----5-----|-----8-----|-----8--10-|
|----0------|------7----|-----------|------4----|-----6-----|-----9-----|-----9-----|
|----2------|-----------|------4----|------5----|-----5-----|-----------|-----9-----|
|-----------|-0---------|-0---------|--0--------|-0---------|-0---------|-0---------|
|-2---------|-----------|-----------|-----------|-----------|-----------|-----------|


|-7---5--\-2|-5---------|~5-------5-|-10--------|
|-----0-----|-----5-----|-----5-----|------7----|
|-----7-----|-----4-----|----5------|-----7-----|
|-----------|-----5-----|-----5-----|------9----|
|-0---------|-0---------|-0---------|-----------|
|-----------|-----------|-----------|-9---------|

First ending, then start over--->
IX - - - - - II - - - - -
|-9---------|-2-------2-|------5--7-|-----5---7-|-2---------|--3--------|-5---------|
|-----9-----|-----5-----|--9---0----|--9--5-----|---------3-|--5--------|-5---------|
|-----9-----|-----4-----|-----------|-----6-----|-----2---2-|--4--------|-6---------|
|-----11----|-----------|------5----|-----------|-----2---4-|-(5)-------|-7---------|
|-----------|-----------|-----------|-----------|-2-------2-|-----------|-7---------|
|-11--------|-4---------|--9--------|--9--------|-----4-----|--2--------|-7---------|


 Second ending, to end. --->
IX - - - - - VIII - - - -
|-----------|---------8-|-7----5----|-7----5----|-----------|-3---------|-5---------|
|-13--------|-----8-----|-----5---8-|-----5---8-|-1-------3-|-5---------|-5---------|
|-----9-----|-11--------|-----------|-----5-----|-----2---2-|-4---------|-5---------|
|----10-----|----10-----|-----5-----|-----5-----|-----2---4-|-5---------|-7---------|
|----12-----|----10-----|-----------|-----------|-2-------2-|-----------|-7---------|
|-9---------|-9---------|-9---------|-9---------|-----------|-2---------|-7---------|



Gymnopedie no.1  - Satie
~~~~~~~~~~~~~~~
Arranged for guitar by John Kean.

Standard tuning.

Melody notes are marked with a "#" to distinguish them from the chords.
These notes could be brought out using artificial harmonics.

3/4 time (each beat = "---" in the tab).

Lente (MM = 88).

 $
||----4-----|----4-----|----4-----|----4-----|---#4-#7--|#5-#4-----|
||----5-----|----4-----|----5-----|----4-----|----5-----|----4-#4--|
||----6-----|----4-----|----6-----|----4-----|----6-----|----4-----|
||----------|----------|----------|----------|----------|----------|
||-0--------|----------|-0--------|----------|-0--------|----------|
||----------|-0--------|----------|-0--------|----------|-0--------|


|----4-----|----4-----|----4-----|----4-----|----4-----|----4-----|
|---#4-#5--|----4-----|----5-----|----4-----|----5-----|----4-----|
|#6--6-----|#4--------|----6-----|----4-----|----6-----|----4-----|
|----------|----------|#6--------|#6--------|#6--------|#6--------|
|-0--------|----------|-0--------|----------|-0--------|----------|
|----------|-0--------|----------|-0--------|----------|-0--------|


|---#4-#7--|#5-#4-----|----4-----|----4-----|----4-----|#4--------|
|----5-----|----4-#4--|---#4-#5--|----4-----|#4--------|----5-----|
|----6-----|----4-----|#6--6-----|#4--------|----4-----|----6-----|
|----------|----------|----------|----------|----------|----------|
|-0--------|----------|-0--------|----------|----------|-4--------|
|----------|-0--------|----------|-0--------|-4--------|----------|


|----------|----------|----------|----2-----|#2-#0-----|----2-----|
|----2-----|----5-----|----5-----|---#2-#3--|----2-#2--|#5-#3-#2--|
|----2-----|----2-----|----4-----|#4--4-----|----2-----|----2-----|
|#4--------|----------|----5-----|----------|----------|----2-----|
|----------|----------|----------|-2--------|----------|----------|
|-2--------|-2--------|-0--------|----------|-0--------|-0--------|


|#0--------|------#0--|#2-#3-#5--|#7----#0--|#2-#0-----|#0--------|
|----0-----|----0-----|----3-----|---#3-----|----2-#2--|----0-----|
|----4-----|----4-----|----4-----|----4-----|----2-----|----4-----|
|----4-----|----5-----|----------|----4-----|----2-----|----4-----|
|----5-----|----5-----|----------|----------|----------|----5-----|
|-0--------|-0--------|-0--------|-0--------|-0--------|-0--------|

              To Coda %
|------#0--|#5--------||#4--------|----4-----|------#2--|---#0-#2--|
|----0-----|----2-----||----4-----|----5-----|#4-#5-----|#4--0-----|
|----4-----|----2-----||----4-----|#6-#4-#6--|----4-----|----1-----|
|----5-----|----------||----------|----------|----4-----|----------|
|----5-----|----------||----------|-4--------|----------|----------|
|-0--------|-2--------||-4--------|----------|-2--------|-2--------|

             arp.        arp.
|-------5--|-10--------|-12--------||
|----5--5--|--7--------|--9--------||
|#1--4--6--|--7--------|--9--------|| D.S. $
|-------4--|--9--------|--9--------|| al Coda
|----4-----|--9--------|-11--------||
|-2--------|--7--------|--0--------||


 % Coda                                                   arp.     arp.
||#3--------|------#3--|#2-#0-----|#2-#0-----|-------5--|-10-----|-12-----||
||----0-----|#2-#3-----|------#3--|------#3--|----5--5--|--7-----|-12-----||
||----0-----|----4-----|----4-----|----4-----|#0--4--6--|--7-----|--9-----||
||----------|----5-----|----4-----|----5-----|-------4--|--9-----|--9-----||
||----------|----------|----------|----------|----4-----|--9-----|-10-----||
||-2--------|-2--------|-2--------|-2--------|-2--------|--7-----|--0-----||     
Добавлено: 27.07.2013
Другие материалы по этой песне:

Страница создана 25.02.2012
http://primanota.ru/erik-satie/gymnopedie-1-chords.htm
Привет, Гость.
Предлагаем пройти революционный курс по гитаре.
Подарок от PrimaNota.Ru, забирай!