PrimaNota.ru - самый крупный в мире бесплатный архив песенных текстов, аккордов, табулатур и нот


Эрик Сати - Gnossienne 3 - таба, видео

Регистрация Запомнить меня
Войти через:  Facebook Google Twitter Vk Yandex Mail.ru

Эрик Сати - Gnossienne 3 - таба, видео

Печатать
Просмотров: 294
				    Gnossienne No. 3
				   ~~~~~~~~~~~~~~~~~~
				       Erik Satie.

Arranged for guitar by Jasmine Korcok (jkorcok@uoguelph.ca),
December 29 03.
Melody notes distinguished by *.
4/4 time.
Lento.


   1   
      |     |     |     |         |     |     |     |        
E |--*5-*5-------*2-*2--------|--------*0-*0--------------|
B |--------*4-*4--------1-----|---------1----*4-*4-*1-*1--|
G |---------2-----------2-----|---------2-----------2-----|
D |---------2-----------2-----|---------2-----------2-----|
A |---0-----------------------|---0-----------------------|
e |---------------------------|---------------------------|


   3 
      |     |     |     | 	  |     |     |     |     
E |---------------------------|---------------------------|
B |--*0-*0--------------------|---------------------------|
G |---------0-----------0-----|---------0-----------0-----|
D |---------2-----------2-----|---------2-----------2-----|
A |---------2-----------2-----|---------2-----------2-----|
e |---0-----------------------|---0-----------------------|


   5   			       conseillez-vous soigneusement...
      |     |     |     |         |     |     |     |        
E |--*5-*5-------*2-*2--------|--------*0-*0--------------|
B |--------*4-*4--------1-----|---------1----*4-*4-*1-*1--|
G |---------2-----------2-----|---------2-----------2-----|
D |---------2-----------2-----|---------2-----------2-----|
A |---0-----------------------|---0-----------------------|
e |---------------------------|---------------------------|


   7   
      |     |     |     |          |     |     |     |        
E |---------------------------|----------1-----------1----|
B |--*0-*0--------------------|*0-*3----*0-*0-*1-*1-------|
G |---------0-----------0-----|----------2-----------2----|
D |---------2-----------2-----|----0-----------------0----|
A |---------2-----------2-----|---------------------------|
e |---0-----------------------|---------------------------|


   9   
      |     |     |     |          |     |     |     |        
E |---------------------------|----------1-----------1----|
B |--*0-*0--------------------|*0-*3-----------------3----|
G |---------1-----------1-----|----------2-----------2----|
D |---------2-----------2-----|----0----------------------|
A |---------2-----------2-----|---------------------------|
e |---0-----------------------|---------------------------|


  11  munissez-vous de clairvoyance...
      |     |     |     |         |     |     |     |        
E |---------1-----------1-----|---------1-----------1-----|
B |--------*0-*0-*3-*3-*0-*0--|--------*0-*3-*0-----3-----|
G |---------2-----------2-----|--*1-*2--2-------*2-*1-*2--|
D |---0-----------------------|---0-----------------------|
A |---------------------------|---------------------------|
e |---------------------------|---------------------------|


  13   
      |     |     |     |         |     |     |     |        
E |---------1-----------1-----|--*1-*1--0-----------0-----|
B |--*0-*3-*0----------*0-*3--|---------1-----------1-----|
G |---------2-*2-*1-*2--2-----|--------*2-*2--------------|
D |---0-----------------0-----|---------------------------|
A |---------------------------|---0-----------------------|
e |---------------------------|---------------------------|


  15            	       seul, pendant un instant...
      |     |     |     |         |     |     |     |        
E |---------0-----------0-----|--*0-*0--------------------|
B |---------1-----------1-----|--------------*2-*2--------|
G |---------2-----------2-----|--------*3-*3--------0-----|
D |---------------------------|---------2-----------2-----|
A |---0-----------------------|---------2-----------2-----|
e |---------------------------|---0-----------------------|


  17   
      |     |     |     |         |     |     |     |        
E |---------------------------|---------2-----------2-----|
B |--------*0-*0--------------|---------3-----------3-----|
G |---------0----*3-*3-*0-*0--|---------4-----------4-----|
D |---------2-----------2-----|--*4-*4--------------------|
A |---------2-----------2-----|---2-----------------------|
e |---0-----------------------|---------------------------|


  19   
      |     |     |     |         |     |     |     |        
E |---------2-----------2-----|--*0-*0--------------------|
B |---------3-----------3-----|--------------*2-*2--------|
G |---------4-----------4-----|--------*3-*3--------0-----|
D |---------------------------|---------2-----------2-----|
A |---2-----------------------|---------2-----------2-----|
e |---------------------------|---0-----------------------|


  21   
      |     |     |     |         |     |     |     |        
E |---------------------------|---------2-----------2-----|
B |--------*0-*0--------------|---------3-----------3-----|
G |---------0----*3-*3-*0-*0--|---------4-----------4-----|
D |---------2-----------2-----|--*4-*4--------------------|
A |---------2-----------2-----|---2-----------------------|
e |---0-----------------------|---------------------------|


  23   			       de manière à obtenir un creux...
       |     |     |     |         |     |     |     |        
E |----------2-----------2----|---------------------*0----|
B |----------2-----------2----|---------------*0-*2----*2-|
G |---*2-----------------2----|---------*0-*3--------0----|
D |*4-------------------------|---*2-*4--2-----------2----|
A |----------0-----------0----|----------2-----------2----|
e |----2----------------------|----0----------------------|


  25   
      |     |     |     |         |     |     |     |        
E |---------------------------|--------*0-----------------|
B |--*0-----------------------|--*0-*2----*2-*0-----------|
G |-----*3-*0----------*0-*3--|---------0-------*3-*0-----|
D |---------2-*4-*2-*4--2-----|---------2-----------2-*4--|
A |---------2-----------2-----|---------2-----------2-----|
e |---0-----------------------|---0-----------------------|


  27   
      |     |     |     |         |     |     |     |        
E |--------------------*0-----|---------2-----------2-----|
B |--------------*0-*2----*2--|--*3-*3--------------3-----|
G |--------*0-*3--------0-----|---------4-----------4-----|
D |--*2-*4--2-----------2-----|---------------------------|
A |---------2-----------2-----|---2-----------------------|
e |---0-----------------------|---------------------------|


  29  				très perdu...
      |     |     |     |         |     |     |     |        
E |---------2-----------2-----|--------------------*0-----|
B |---------3-----------3-----|--------------*0-*2----*2--|
G |---------4-----------4-----|--------*0-*3--------0-----|
D |---------------------------|--*2-*4--2-----------2-----|
A |---2-----------------------|---------2-----------2-----|
e |---------------------------|---0-----------------------|


  31   
      |     |     |     |         |     |     |     |        
E |---------------------------|--------*0-----------------|
B |--*0-----------------------|--*0-*2----*2-*0-----------|
G |-----*3-*0----------*0-*3--|---------0-------*3-*0-*4--|
D |---------2-*4-*2-*4--2-----|---------2-----------2-----|
A |---------2-----------2-----|---------2-----------2-----|
e |---0-----------------------|---0-----------------------|


  33   
      |     |     |     |         |     |     |     |        
E |--------------------*0-----|---------2-----------2-----|
B |--------------*0-*2----*2--|--*3-*3--------------3-----|
G |--------*0-*3--------0-----|---------4-----------4-----|
D |--*2-*4--2-----------2-----|---------------------------|
A |---------2-----------2-----|---2-----------------------|
e |---0-----------------------|---------------------------|


  35   portez cela plus loin...   
       |     |     |     |         |     |     |     |        
E |----------0-----------0----|----------0-----------0----|
B |----------1-----------1----|----------1-----------1----|
G |---*2-----------------2----|----------2-----------2----|
D |*4-------------------------|---------------------------|
A |----0----------------------|----0----------------------|
e |---------------------------|---------------------------|


  37   
       |     |     |     |         |     |     |     |        
E |----------1-----------1----|----------1-----------1----|
B |*1--------1-----------1----|----------1-----------1----|
G |---*1-----------------1----|----------1-----------1----|
D |---------------------------|---------------------------|
A |---------------------------|---------------------------|
e |----1----------------------|---1-----------------------|


  39   ouvrez la tête...   
      |     |     |     |         |     |     |     |        
E |---------1-----------1-----|---------1-----------1-----|
B |-----*0-*1-*4-*3-*1-*0-----|--*1-*1--------------1-----|
G |--*1-----1-----------1-*1--|---------1-----------1-----|
D |---------------------------|---------------------------|
A |---------------------------|---------------------------|
e |---1-----------------------|---1-----------------------|


  41   
       |     |     |     |         |     |     |     |        
E |----------1-----------1----|----------1-----------1----|
B |*0-*3-----------------3----|----------3-----------3----|
G |----------2-----------2----|----------2-----------2----|
D |----0----------------------|----0----------------------|
A |---------------------------|---------------------------|
e |---------------------------|---------------------------|


  43   
      |     |     |     |         |     |     |     |        
E |---------1-----------1-----|---------1-----------1-----|
B |-----*0-*1-*4-*3-*1-*0-----|--*1-*1--------------1-----|
G |--*1-----1-----------1-*1--|---------1-----------1-----|
D |---------------------------|---------------------------|
A |---------------------------|---------------------------|
e |---1-----------------------|---1-----------------------|


  45   
       |     |     |     |         |     |     |     |        
E |----------1-----------1----|---*5-*5-------*2-*2-------|
B |*0-*3-----------------3----|---------*4-*4--------1----|
G |----------2-----------2----|----------2-----------2----|
D |----0----------------------|----------2-----------2----|
A |---------------------------|----0----------------------|
e |---------------------------|---------------------------|


  47   
      |     |     |     |         |     |     |     |        
E |--------*0-*0--------------|---------------------------|
B |---------1----*4-*4-*1-*1--|--*0-*0--------------------|
G |---------2-----------2-----|---------0-----------0-----|
D |---------2-----------2-----|---------2-----------2-----|
A |---0-----------------------|---------2-----------2-----|
e |---------------------------|---0-----------------------|


  49   				enfouissez le son...
      |     |     |     |         |     |     |     |        
E |---------------------------|--*5-*5-------*2-*2--------|
B |---------------------------|--------*4-*4--------1-----|
G |---------0-----------0-----|---------2-----------2-----|
D |---------2-----------2-----|---------2-----------2-----|
A |---------2-----------2-----|---0-----------------------|
e |---0-----------------------|---------------------------|


  51   
      |     |     |     |         |     |     |     |        
E |--------*0-*0--------------|---------------------------|
B |---------1----*4-*4-*1-*1--|--*0-*0-------------*0-*0--|
G |---------2-----------2-----|---------0-----------0-----|
D |---------2-----------2-----|---------2-----------2-----|
A |---0-----------------------|---------2-----------2-----|
e |---------------------------|---0-----------------------|


  53   
      |     |     |     |         |     |     |     |        
E |--*0-*0--------------------|---------------------------||
B |---------1-----------1-----|---------1-----------1-----||
G |---------2-----------2-----|---------2-----------2-----||
D |---------2-----------2-----|---------2-----------2-----||
A |---0-----------------------|---0-----------------------||
e |---------------------------|---------------------------||

				        ^           ^
		      (alternatively,)  8
				        10
				        9
				        7
				        0
				        x 

-J. Korcok
 29/12/03
     
Добавлено: 09.06.2013
Другие материалы по этой песне:
  • Аккорды и текст

Страница создана 09.06.2013
http://primanota.ru/erik-satie/gnossienne-3-chords.htm
Привет, Гость.
Предлагаем пройти революционный курс по гитаре.
Подарок от PrimaNota.Ru, забирай!