PrimaNota.ru - самый крупный в мире бесплатный архив песенных текстов, аккордов, табулатур и нот


Эрик Сати - Gnossienne 2 - таба, видео

Регистрация Запомнить меня
Войти через:  Facebook Google Twitter Vk Yandex Mail.ru

Эрик Сати - Gnossienne 2 - таба, видео

Печатать
Просмотров: 307
Уроки эстрадного вокала в Санкт-Петербурге
				    Gnossienne No. 2
                                   ~~~~~~~~~~~~~~~~~~
                                       Erik Satie.

Arranged for guitar by Jasmine Korcok (jkorcok@uoguelph.ca),
17 June 2004.
I found this to be the most difficult Satie piece to tab, partly 
because I could not find sheet music with stave indications or
a time signature (perhaps it does not exist).
Consequently, it is the hardest to play of the Trois Gnossiennes, 
but I have done my best to make the tab legible.
Distance between each hash mark represents a quarter note.
Melody notes distinguished by *.
Lent et avec étonnement.


      
      |     |     |        |        |     |     |        |       |
E |--------------------------------------------------------------|
B |--*3-*5-------*1-*3-*1-*3-*1-*3-------------------------------|
G |---------0----------------------*3-*5-------*2-*3-*2-*3-*2-*3-|
D |---------0-----0------------------------0----0----------------|
A |---------1-----0------------------------1----0----------------|
e |---3-----------1-----------------3-----------1----------------|


   
      |     |     |     |     |     |     |     |     |     
E |---------0-----------0-----------------0-----------|
B |-----*0--------------------------1-----------------|
G |--*0-----------------------------------------------|
D |---------5-----------5-----------3-----5-----------|
A |---------2-----------2-----------0-----2-----------|
e |---0-----------------------0-----------------------|


    Ne sortez pas...
      |     |     |        |        |     |     |        |       |   
E |--------------------------------------------------------------|
B |--*3-*5-------*1-*3-*1-*3-*1-*3-------------------------------|
G |---------0----------------------*3-*5-------*2-*3-*2-*3-*2-*3-|
D |---------0-----0-----------------------0-----0----------------|
A |---------1-----0-----------------------1-----0----------------|
e |---3-----------1-----------------3-----------1----------------|


     III....................   
      |     |     |     |     |     |     |     |     |      
E |---------4-----------4-----------0-----4-----------|
B |---------3-----------3-----------0-----3-----------|
G |---------------------------------0-----1-----------|
D |--*6-*3--------------------0-----------------------|
A |---5-----------------------------------------------|
e |---------------------------------------------------|


                            
     |        |        |        |        |     |     |     |     |     
E |-----------4-----------------4--------------0-----------0-----|
B |-----------3-----------------3-------*0-*0--------------0-----|
G |-------*0-*1-*3-*1-*0----*0-*1-*3-*1--------0-----------0-----|
D |----*3----------------*3--------------------------------------|
A |--5-----------------------------------------------------------|
e |--------------------------------------0-----------------------|

          
    Dans une grande bonté...
     |        |        |        |        |     |     |     |     |       
E |-----------4-----------------4--------------0-----------0-----|
B |-----------3----*1-*3-*1-----3-------*0-*0----------------*0--|
G |-------*0-*1-*3----------*3-*1-*3-*1--------0-----------0-----|
D |----*3--------------------------------------------------------|
A |--5-----------------------------------------------------------|
e |--------------------------------------0-----------------------|


    
     |     |     |     |     |     |     |     |     |     
E |--------------------------------------------------|
B |--------2-----------2-----------0-----2-----------|
G |-*2-----------------2-----------0-----2-----------|
D |--------2-----------2-----------0-----2-----------|
A |--0-----------------------0-----------------------|
e |--------------------------------------------------|


    Plus intimement...                                     
     |        |        |        |        |       |    |     |    |      
E |----*0----------*0-*2-*4-*2-*0----------------2----------2----|
B |-------*4-*2-*4--------------2-*4-*2----*2----2----------2-*0-|
G |-----------2-----------------2-------*3----*3------------3----|
D |-----------2-----------------2--------------------------------|
A |--0-----------------------------------------------------------|
e |--------------------------------------2-----------------------|


                    
     |     |     |     |     |        |        |        |        |    
E |--------1-----------1-------*0----------*0-*2-*4-*2-*0--------|
B |-*1-*1--------------1----------*4-*2-*4--------------2-*4-*2--|
G |--------2-----------2--------------2-----------------2--------|
D |-----------------------------------2-----------------2--------|
A |--------------------------0-----------------------------------|
e |--1-----------------------------------------------------------|


      
      |        |     |     |     |     |     |     |     |      
E |------------2-----------2-----------1-----------1-----|
B |-----*2-----2-----------2-*0-*1-*1----------------*1--|
G |--*3----*3--------------3-----------2-----------2-----|
D |------------------------------------------------------|
A |------------------------------------------------------|
e |---2--------------------------1-----------------------|


         
      |     |     |     |     |     |     |     |     |       
E |---------1-----------1-----------------1-----------|
B |---------3-----------3-----------4-----3-----------|
G |--*2-*2--------------------------0-----------------|
D |---0-----------------------0-----------------------|
A |---------0-----------0-----------3-----0-----------|
e |---------------------------------------------------|


     III................................    
    Avec une légère intimité... 
      |        |        |        |        |     |     |     |    |      
E |---------------------------------------------0-----------0----|
B |--------------------------------------*0-*0--------------0----|
G |--------------*3----------------*3-----------0-----------0----|
D |-----*3-*5-*6----*6-*5-*3-*5-*6----*6-------------------------|
A |---5----------------------------------------------------------|
e |------------4-----------------4--------0----------------------|


     III................................
    Sans orgueil... 
      |        |        |        |        |     |     |     |    |      
E |---------------------------------------------0-----------0----|
B |--------------------*3----------------*0-*0----------------*0-|
G |--------------*3-*5----*5-*3----*3-----------0-----------0----|
D |-----*3-*5-*6----------------*6----*6-------------------------|
A |---5----------------------------------------------------------|
e |------------4-----------------4--------0----------------------|


    
      |     |     |     |     |     |     |     |     |      
E |--------------------------*0-----------------------|
B |---------2-----------2-----------1-----------1-----|
G |--*2-----------------2-----------0-----------0-----|
D |---------2-----------2-----------2-----------2-----|
A |---0-----------------------3-----------------------|
e |---------------------------------------------------|


     
      |     |     |        |        |     |     |        |       |    
E |--------------------------------------------------------------|
B |--*3-*5-------*1-*3-*1-*3-*1-*3-------------------------------|
G |---------0----------------------*3-*5-------*2-*3-*2-*3-*2-*3-|
D |---------0-----0------------------------0----0----------------|
A |---------1-----0------------------------1----0----------------|
e |---3-----------1-----------------3-----------1----------------|


                                         arp.
      |     |     |     |     |     |     |     |     |    
E |---------0-----------0-----------------0-----------||
B |-----*0--------------------------1-----0-----------||
G |--*0-----------------------------------0-----------||
D |---------5-----------5-----------3-----5-----------|| FIN
A |---------2-----------2-----------0-----2-----------||
e |---0-----------------------0-----------0-----------||


-J. Korcok
 17/06/04
     
Добавлено: 07.08.2013
Вам также может быть интересно:
Другие материалы по этой песне:
  • Аккорды и текст

Страница создана 07.08.2013
http://primanota.ru/erik-satie/gnossienne-2-chords.htm
Привет, Гость.
Предлагаем пройти революционный курс по гитаре.
Подарок от PrimaNota.Ru, забирай!