PrimaNota.ru - самый крупный в мире бесплатный архив песенных текстов, аккордов, табулатур и нот


Эрик Сати - Gnossienne 1 - таба, видео

Регистрация Запомнить меня
Войти через:  Facebook Google Twitter Vk Yandex Mail.ru

Эрик Сати - Gnossienne 1 - таба, видео

Печатать
Просмотров: 333
                                      Gnossienne No.1
				     ~~~~~~~~~~~~~~~~~
					Erik Satie.

Arranged for guitar by Jasmine Korcok (jkorcok@uoguelph.ca),
May 5 04.
4/4 time.
Melody notes disinguished by *.
Song is written a 'half-step' higher (f Bb Eb Ab C F), but sounds 
fine with guitar in standard tune. 
Lento.

 
   1   
      |     |      |     |          |     |     |     |        
E |--------*7-*10-*9----*7----|-*7-*6-------*7-*6----------|	
B |---------0------------0----|-----------0-----------0----|
G |---------0------------0----|-----------0-----------0----|	
D |---------------------------|----------------------------|	
A |---------------------------|----------------------------|	
e |---0-----------------------|-----0----------------------|	


   3   
      |     |      |     |          |      |      |     |        
E |--------*7-*10-*9----*7----|*11-*12-------*11-*12-------|
B |---------0------------0----|------------0------------0--|
G |---------0------------0----|------------0------------0--|
D |---------------------------|----------------------------|
A |---------------------------|----------------------------|
e |---0-----------------------|-----0----------------------|


   5   
      |     |      |     |          |     |     |     |        
E |--------*7-*10-*9----*7----|-*7-*6-------*3-*2---------|
B |---------0------------0----|-----------0-----------0---|
G |---------0------------0----|-----------0-----------0---|
D |---------------------------|---------------------------|
A |---------------------------|---------------------------|
e |---0-----------------------|-----0---------------------|


   7   
        |     |     |     |         |     |     |     |        
E |-*0-*2-*0-*2---------------|-*3-*2-*2-*0---------------|
B |-----------3-----------3---|-----------0-----------0---|
G |-----------4-----------4---|-----------0-----------0---|
D |-----------4-----------4---|---------------------------|
A |-----2---------------------|---------------------------|
e |---------------------------|-----0---------------------|


   9   
      |     |     |     |         |     |      |     |        
E |---------0-----------0-----|--------*7-*10-*9----*7----|
B |---------0-----------0-----|---------0------------0----|
G |---------0-----------0-----|---------0------------0----|
D |---------------------------|---------------------------|
A |---------------------------|---------------------------|
e |---0-----------------------|---0-----------------------|


  11   
        |     |     |     |         |     |      |     |        
E |-*7-*6-------*7-*6---------|----------*7-*10-*9----*7---|
B |-----------0-----------0---|-----------0------------0---|
G |-----------0-----------0---|-----------0------------0---|
D |---------------------------|----------------------------|
A |---------------------------|----------------------------|
e |---0-----------------------|---0------------------------|


  13   
        |     |      |     |        |     |      |     |        
E |*11-*12------*11-*12--------|---------*7-*10-*9----*7---|
B |-----------0------------0---|----------0------------0---|
G |-----------0------------0---|----------0------------0---|
D |----------------------------|---------------------------|
A |----------------------------|---------------------------|
e |---0------------------------|----0----------------------|


  15   
        |     |     |     |         |     |     |     |        
E |-*7-*6-------*3-*2---------|-*0-*2-*0-*2---------------|
B |-----------0-----------0---|-----------3-----------3---|
G |-----------0-----------0---|-----------4-----------4---|
D |---------------------------|-----------4-----------4---|
A |---------------------------|-----2---------------------|
e |-----0---------------------|---------------------------|


  17   
        |     |     |     |        |     |     |     |        
E |-*3-*2-*2-*0---------------|----------0-----------0----|
B |-----------0-----------0---|----------0-----------0----|
G |-----------0-----------0---|----------0-----------0----|
D |---------------------------|---------------------------|
A |---------------------------|---------------------------|
e |-----0---------------------|----0----------------------|


  19   Très luisant... 
        |     |     |     |         |     |     |     |        
E |-*3-*5-------*3-*2---------|-*3-*5-------*3-*2---------|
B |-----------5-----------1---|-----------5-----------1---|
G |-----------5-----------2---|-----------5-----------2---|
D |-----------7-----------2---|-----------7-----------2---|
A |-----0---------------------|-----0---------------------|
e |---------------------------|---------------------------|


  21   
        |     |     |     |        |     |     |     |        
E |-*3-*2-*2-*0---------------|----------0-----------0----|
B |-----------0-----------0---|----------0-----------0----|
G |-----------0-----------0---|----------0-----------0----|
D |---------------------------|---------------------------|
A |---------------------------|---------------------------|
e |-----0---------------------|----0----------------------|


  23   
        |     |     |     |         |     |     |     |        
E |-*3-*5-------*3-*2---------|-*3-*5-------*3-*2---------|
B |-----------5-----------1---|-----------5-----------1---|
G |-----------5-----------2---|-----------5-----------2---|
D |-----------7-----------2---|-----------7-----------2---|
A |-----0---------------------|-----0---------------------|
e |---------------------------|---------------------------|


  25   
        |     |     |     |        |     |     |     |        
E |-*3-*2-*2-*0---------------|----------0-----------0----|
B |-----------0-----------0---|----------0-----------0----|
G |-----------0-----------0---|----------0-----------0----|
D |---------------------------|---------------------------|
A |---------------------------|---------------------------|
e |-----0---------------------|----0----------------------|


  27   Questionnez...   
     |     |      |       |         |      |     |     |        
E |----*7-*9-*11-*12-*14-*18-*14|-*12-*14-*12--------------|
B |--------0--------------0-----|----------0-----------0---|
G |--------0--------------0-----|----------0-----------0---|
D |-----------------------------|--------------------------|
A |-----------------------------|--------------------------|
e |--0--------------------------|---0----------------------|


  29   
        |     |     |     |         |     |     |     |        
E |*14-*12--------*12-*11------|*8-*7----------*7-*6-------|
B |-----------0-----------0----|----------0-----------0----|
G |-----------0-----------0----|----------0-----------0----|
D |----------------------------|---------------------------|
A |----------------------------|---------------------------|
e |-----0----------------------|----0----------------------|


  31   
       |     |     |     |         |     |     |     |        
E |*3-*2-*2-*0-----------------|---------0-----------0-----|
B |----------0-----------0-----|---------0-----------0-----|
G |----------0-----------0-----|---------0-----------0-----|
D |----------------------------|---------------------------|
A |----------------------------|---------------------------|
e |----0-----------------------|---0-----------------------|


  33   
     |     |      |       |         |      |     |     |        
E |----*7-*9-*11-*12-*14-*18-*14|-*12-*14-*12--------------|
B |--------0--------------0-----|----------0-----------0---|
G |--------0--------------0-----|----------0-----------0---|
D |-----------------------------|--------------------------|
A |-----------------------------|--------------------------|
e |--0--------------------------|---0----------------------|


  35   
        |     |     |     |         |     |     |     |        
E |*14-*12--------*12-*11------|*8-*7----------*7-*6-------|
B |-----------0-----------0----|----------0-----------0----|
G |-----------0-----------0----|----------0-----------0----|
D |----------------------------|---------------------------|
A |----------------------------|---------------------------|
e |-----0----------------------|----0----------------------|


  37   
       |     |     |     |         |     |     |     |        
E |*3-*2-*2-*0-----------------|---------0-----------0-----|
B |----------0-----------0-----|---------0-----------0-----|
G |----------0-----------0-----|---------0-----------0-----|
D |----------------------------|---------------------------|
A |----------------------------|---------------------------|
e |----0-----------------------|---0-----------------------|


  39
        |     |     |     |         |     |     |     |        
E |-*3-*5-------*3-*2---------|-*3-*5-------*3-*2---------|
B |-----------5-----------1---|-----------5-----------1---|
G |-----------5-----------2---|-----------5-----------2---|
D |-----------7-----------2---|-----------7-----------2---|
A |-----0---------------------|-----0---------------------|
e |---------------------------|---------------------------|


  41   
        |     |     |     |        |     |     |     |        
E |-*3-*2-*2-*0---------------|----------0-----------0----|
B |-----------0-----------0---|----------0-----------0----|
G |-----------0-----------0---|----------0-----------0----|
D |---------------------------|---------------------------|
A |---------------------------|---------------------------|
e |-----0---------------------|----0----------------------|


  43   
        |     |     |     |         |     |     |     |        
E |-*3-*5-------*3-*2---------|-*3-*5-------*3-*2---------|
B |-----------5-----------1---|-----------5-----------1---|
G |-----------5-----------2---|-----------5-----------2---|
D |-----------7-----------2---|-----------7-----------2---|
A |-----0---------------------|-----0---------------------|
e |---------------------------|---------------------------|


  45   
        |     |     |     |        |     |     |     |        
E |-*3-*2-*2-*0---------------|----------0-----------0----|
B |-----------0-----------0---|----------0-----------0----|
G |-----------0-----------0---|----------0-----------0----|
D |---------------------------|---------------------------|
A |---------------------------|---------------------------|
e |-----0---------------------|----0----------------------|  


  47   Du bout de la pensée...   
      |     |      |     |          |     |     |     |        
E |--------*7-*10-*9----*7----|-*7-*6----------------------|
B |---------0------------0----|-----------0-----------0----|
G |---------0------------0----|-----------0-----------0----|
D |---------------------------|----------------------------|
A |---------------------------|----------------------------|
e |---0-----------------------|-----0----------------------|


  49   
      |     |      |     |          |      |      |     |        
E |--------*7-*10-*9----*7----|*11-*12---------------------|
B |---------0------------0----|------------0------------0--|
G |---------0------------0----|------------0------------0--|
D |---------------------------|----------------------------|
A |---------------------------|----------------------------|
e |---0-----------------------|-----0----------------------|


  51   
      |     |      |     |          |     |     |     |        
E |--------*7-*10-*9----*7----|-*7-*6----------------------|
B |---------0------------0----|-----------0-----------0----|
G |---------0------------0----|-----------0-----------0----|
D |---------------------------|----------------------------|
A |---------------------------|----------------------------|
e |---0-----------------------|-----0----------------------|


  53   
      |     |      |     |          |      |      |     |        
E |--------*7-*10-*9----*7----|*11-*12---------------------|
B |---------0------------0----|------------0------------0--|
G |---------0------------0----|------------0------------0--|
D |---------------------------|----------------------------|
A |---------------------------|----------------------------|
e |---0-----------------------|-----0----------------------|


  55   
        |     |     |     |         |     |     |     |        
E |-*3-*5-------*3-*2---------|-*3-*5-------*3-*2---------|
B |-----------5-----------1---|-----------5-----------1---|
G |-----------5-----------2---|-----------5-----------2---|
D |-----------7-----------2---|-----------7-----------2---|
A |-----0---------------------|-----0---------------------|
e |---------------------------|---------------------------|


  57   
        |     |     |     |        |     |     |     |        
E |-*3-*2-*2-*0---------------|----------0-----------0----|
B |-----------0-----------0---|----------0-----------0----|
G |-----------0-----------0---|----------0-----------0----|
D |---------------------------|---------------------------|
A |---------------------------|---------------------------|
e |-----0---------------------|----0----------------------|  


  59   
        |     |     |     |         |     |     |     |        
E |-*3-*5-------*3-*2---------|-*3-*5-------*3-*2---------|
B |-----------5-----------1---|-----------5-----------1---|
G |-----------5-----------2---|-----------5-----------2---|
D |-----------7-----------2---|-----------7-----------2---|
A |-----0---------------------|-----0---------------------|
e |---------------------------|---------------------------|


  61   
        |     |     |     |        |     |     |     |        
E |-*3-*2-*2-*0---------------|----------0-----------0----|
B |-----------0-----------0---|----------0-----------0----|
G |-----------0-----------0---|----------0-----------0----|
D |---------------------------|---------------------------|
A |---------------------------|---------------------------|
e |-----0---------------------|----0----------------------|  


  63   Postulez en vous-même...   
     |     |      |       |         |      |     |     |        
E |----*7-*9-*11-*12-*14-*18-*14|-*12-*14-*12--------------|
B |--------0--------------0-----|----------0-----------0---|
G |--------0--------------0-----|----------0-----------0---|
D |-----------------------------|--------------------------|
A |-----------------------------|--------------------------|
e |--0--------------------------|---0----------------------|


  65  
        |     |     |     |         |     |     |     |        
E |*14-*12--------*12-*11------|*8-*7----------*7-*6-------|
B |-----------0-----------0----|----------0-----------0----|
G |-----------0-----------0----|----------0-----------0----|
D |----------------------------|---------------------------|
A |----------------------------|---------------------------|
e |-----0----------------------|----0----------------------|


  67   
       |     |     |     |         |     |     |     |        
E |*3-*2-*2-*0-----------------|---------0-----------0-----|
B |----------0-----------0-----|---------0-----------0-----|
G |----------0-----------0-----|---------0-----------0-----|
D |----------------------------|---------------------------|
A |----------------------------|---------------------------|
e |----0-----------------------|---0-----------------------|


  69   Pas à pas...
     |     |      |       |         |      |     |     |        
E |----*7-*9-*11-*12-*14-*18-*14|-*12-*14-*12--------------|
B |--------0--------------0-----|----------0-----------0---|
G |--------0--------------0-----|----------0-----------0---|
D |-----------------------------|--------------------------|
A |-----------------------------|--------------------------|
e |--0--------------------------|---0----------------------|


  71   
        |     |     |     |         |     |     |     |        
E |*14-*12--------*12-*11------|*8-*7----------*7-*6-------|
B |-----------0-----------0----|----------0-----------0----|
G |-----------0-----------0----|----------0-----------0----|
D |----------------------------|---------------------------|
A |----------------------------|---------------------------|
e |-----0----------------------|----0----------------------|


  73   
       |     |     |     |         |     |     |     |        
E |*3-*2-*2-*0-----------------|---------0-----------0-----|
B |----------0-----------0-----|---------0-----------0-----|
G |----------0-----------0-----|---------0-----------0-----|
D |----------------------------|---------------------------|
A |----------------------------|---------------------------|
e |----0-----------------------|---0-----------------------|
  

  75   
        |     |     |     |         |     |     |     |        
E |-*3-*5-------*3-*2---------|-*3-*5-------*3-*2---------|
B |-----------5-----------1---|-----------5-----------1---|
G |-----------5-----------2---|-----------5-----------2---|
D |-----------7-----------2---|-----------7-----------2---|
A |-----0---------------------|-----0---------------------|
e |---------------------------|---------------------------|


  77   
        |     |     |     |        |     |     |     |        
E |-*3-*2-*2-*0---------------|----------0-----------0----|
B |-----------0-----------0---|----------0-----------0----|
G |-----------0-----------0---|----------0-----------0----|
D |---------------------------|---------------------------|
A |---------------------------|---------------------------|
e |-----0---------------------|----0----------------------|


  79   Sur la langue...
        |     |     |     |         |     |     |     |        
E |-*3-*5-------*3-*2---------|-*3-*5-------*3-*2---------|
B |-----------5-----------1---|-----------5-----------1---|
G |-----------5-----------2---|-----------5-----------2---|
D |-----------7-----------2---|-----------7-----------2---|
A |-----0---------------------|-----0---------------------|
e |---------------------------|---------------------------|


  81   
        |     |     |     |          
E |-*3-*2-*2-*0---------------||
B |-----------0---------------||
G |-----------0---------------|| 
D |---------------------------||
A |---------------------------||
e |-----0---------------------||
     

-J. Korcok
05/05/04
     
Добавлено: 30.07.2013
Другие материалы по этой песне:
  • Аккорды и текст

Страница создана 30.07.2013
http://primanota.ru/erik-satie/gnossienne-1-chords.htm
Привет, Гость.
Предлагаем пройти революционный курс по гитаре.
Подарок от PrimaNota.Ru, забирай!