PrimaNota.ru - самый крупный в мире бесплатный архив песенных текстов, аккордов, табулатур и нот


Erik Mongrain - Fates - таба, видео

Регистрация Запомнить меня
Войти через:  Facebook Google Twitter Vk Yandex Mail.ru

Erik Mongrain - Fates - таба, видео

Печатать
Просмотров: 113
its tunned weird. i dont know the notes but the 6th string is tunned to the 12th fret.
5th string to the 4th fret. the 4th string to the 3rd fret. the 3rd string to the 2nd
and the 2nd string to the 5th fret. i know that the notes of the 5th and 6th stings are 
so that might help you out.


    {with left hand}
e|---------------------|note: this part here is played by the left hand only.
b|---------------------|this is the only thing the left hand plays. everything
g|------h2p0-----------|else is played with the right. for instance the harmonics
d|----h1---------------|are played with the thumb to pick and 1st finger to
a|--h2-------h4p0------|produce the sound.
E|---------------------| x3 or 4 (listen to the song)

e|------*12-------------*7-------------------------|
b|-------*12----------------------------*7---------|
g|------h2p0------------h2p0------------h2p0-------|
d|----h1--------------h1--------------h1-----------|
a|--h2-------h4p0---h2-------h4p0---h2-------h4p0--|
E|-------------------------------------------------|

e|---------------------------------------0---------|
b|---------------------------------------0---------|
g|------h2p0------------h2p0-------------2p0-------|
d|----h1--------------h1--------------h1-1---------|
a|--h2-------h4p0---h2-------h4p0---h2-------h4p0--|
E|-------------------------------------------------|

e|---------------------------------------h15p0--------------0---------|
b|----------------------------------------------------------0---------|
g|------h2p0------------h2p0-------------h 2p0-------------h2p0-------|
d|----h1--------------h1---------------h1----------------h1-----------|
a|--h2-------h4p0---h2-------h4p0---h 2--------h4p0---h 2-------h4p0--|
E|----------------------------------h14---------------h14-------------|

e|---------------------------------------h15p0-------------h14~-p0-------|
b|-----------------------------------------------------------------------|
g|------h2p0------------h2p0-------------h 2p0-------------h 2~-p0-------|
d|----h1--------------h1---------------h1----------------h1--------------|
a|--h2-------h4p0---h2-------h4p0---h 2--------h4p0---h 2----------h4p0--|
E|----------------------------------h14---------------h14----------------|

e|-------h15p0--------------0-----------------------------------------|
b|--------------------------0-----------------------------------------|
g|-------h 2p0-------------h2p0------------h2p0------------h2p0-------|
d|-----h1----------------h1--------------h1--------------h1-----------|
a|--h 2--------h4p0---h 2-------h4p0---h2-------h4p0---h2-------h4p0--|
E|--h14---------------h14---------------------------------------------|

e|-------h15p0-------------h14~-p0-------|
b|---------------------------------------|
g|-------h 2p0-------------h 2~-p0-------|
d|-----h1----------------h1--------------|
a|--h 2--------h4p0---h 2----------h4p0--|
E|--h14---------------h14----------------|

e|------h10p0-------------h12p0--------------0--------------h10p0-------|
b|-------------------------------------------0--------------------------|
g|------h 2p0-------------h 2p0-------------h2p0------------h 2p0-------|
d|----h1----------------h1----------------h1--------------h1------------|
a|--h2--------h4p0---h 2--------h4p0---h 2-------h4p0---h2--------h4p0--|
E|--h9---------------h10---------------h10--------------h9--------------|

---------h12~-p0-------|
-----------------------|
---------h 2~-p0-------|
-------h1--------------|
----h 2----------h4p0--|
----h10----------------|

e|------h10p0------------h12p0--------------0--------------h10p0----------|
b|------------------------------------------0-----------------------------|
g|------h 2p0------------h 2p0-------------h2p0------------h 2p0----------|
d|----h1---------------h1----------------h1--------------h1---------------|
a|--h2-------h4p0---h 2--------h4p0---h 2-------h4p0---h2--------h4p0-----|
E|--h9--------------h10---------------h10--------------h9--------------0~-|

(with pick)
e|--0-------------------------0------0---0----0--0--------0-0-0----------|
b|---0----------------------------0--0---0----0--0--------0-0-0-0--------|
g|----0--(upward strum)---0----------0--------0--0-0-0-0--2-4-5-4-2------|
d|-----0-----------------------------0h2-2----2--0h2-3-3--3-3-3-3-3------|
a|------0---------------0-------0----0h2-2----2--0-0-0----0-0-0----------|
E|-------0--------------0---0---0----0h2-2----2--0------------------/11~-|...

so thats all i got so far.its pretty right on. i learned it from watching him and by ear
it might not be perfect but its close enough. let me know what you think at
                   -   dev.martorell@yahoo.com
Добавлено: 11.09.2013
Вам также может быть интересно:
Другие материалы по этой песне:
  • Аккорды и текст

Страница создана 11.09.2013
http://primanota.ru/erik-mongrain/fates-chords.htm
Привет, Гость.
Предлагаем пройти революционный курс по гитаре.
Подарок от PrimaNota.Ru, забирай!