PrimaNota.ru - самый крупный в мире бесплатный архив песенных текстов, аккордов, табулатур и нот


Erics Trip - My Chest is Empty - аккорды и текст, таба, видео

Регистрация Запомнить меня
Войти через:  Facebook Google Twitter Vk Yandex Mail.ru

Erics Trip - My Chest is Empty - аккорды и текст, таба, видео

Печатать
Просмотров: 97
My Chest is Empty
Erics Trip
		   -##


Eric's Trip - My Chest Is Empty
-------------------------------

Tabbed by: Sem van Blerkem
Lyrics by: Patrick Benny and Anne Helmond

Tune down 1/2 step


Intro: C7M   C7M   A7 A7 2x
-----


Verse:
-----
C7M                           A7
       I wish I could be your      man
C7M                           A7
       You wanted me to under____stand
C7M                           A7
       I do as just that I'm       needing something to
C7M                           A7
       You ever want me to tell    you


Chorus:
------
F                C7M  
       I wish you'____d stay
G                             F
       I'd like you to be here     everyday


Bridge: C7M   C7M   A7 A7 2x
------


Verse:
-----
C7M                      A7
       My chest is empti____er than yours
C7M                           A7
       It'll be worst for you      soon or
C7M                           A7
       Maybe you could be my       girl
C7M                                A7
       I wish you'd let me be yours     in my world


Chorus:
------
F                C7M  
       I wish you____'d stay
G                             F
       I'd like you to be here     everyday

Outro: C7M   C7M   A7 A7 C7M   C7M   A7



Picking form:

Verse:
-----

C7M  
---------------------
-------0~~0--------0-
-------0~~0--0-----0-
-2--2-----------2----
-3--3-----------3----
---------------------

A7
---------------------
-------2~~2--------2-
-------0~~0--0-----0-
-2--2-----------2----
-0--0-----------0----
---------------------
---------------------


Chorus:
------

F
---------------------
-------1~~1--------1-
-------2~~2--2-----2-
-3--3-----------3----
-3--3-----------3----
---------------------

C7M  
---------------------
-------0~~0--------0-
-------0~~0--0-----0-
-2--2-----------2----
-3--3-----------3----
---------------------

G
---------------------
-------0~~0----------
-------0~~0--0-----0-
-------0~~0--0-----0-
-2--2-----------2----
-3--3-----------3----

F
---------------------
-------1~~1--------1-
-------2~~2--2-----2-
-3--3-----------3----
-3--3-----------3----
---------------------

Comments or suggestions to: Anne Helmond (fhelmond@inter.nl.net)     
Добавлено: 20.07.2013
Другие материалы по этой песне:
  • Аккорды и текст

Страница создана 14.07.2012
http://primanota.ru/erics-trip/my-chest-is-empty-chords.htm
Привет, Гость.
Предлагаем пройти революционный курс по гитаре.
Подарок от PrimaNota.Ru, забирай!