PrimaNota.ru - самый крупный в мире бесплатный архив песенных текстов, аккордов, табулатур и нот


Erick Turnbull - Low C - таба, видео

Регистрация Запомнить меня
Войти через:  Facebook Google Twitter Vk Yandex Mail.ru

Erick Turnbull - Low C - таба, видео

Печатать
Просмотров: 115
http://www.myspace.com/erickturnbull
hes signed with Candyrat records
Tuning Process:

E             E            E              E              E->Eb  --0--
B             B            B              B->Bb  --0--   Bb
G             G    --0--   G->Eb  --0--   Eb     --7--   Eb     --0--
D             D            D      --1--   D              D
A    --3--    A->G --0--   G              G              G
E->C --0--    C            C              C              C

NOTE: every string is tuned down from standard (except D) !


Section 1) intro riff
                                *    
Eb------------<12>--------------0---------------------------------------------------------------------|
Bb------------<12>--------------0---------------------------------------------------------------------|
Eb------------<12>-------------(0)--------------------------------------------------------------------|
D--------<12>---------0---0h1-----/3------3p0-----0---------------------------------------------------|
G------------------x----0--h1-----/3---3-------3----/-------------------------------------------------|
C------0-----------T----------------------T-----------------------------------------------------------|
* - using middle/ring/pinky, with ONE single brushing up motion, tap the body of the acoustic (where the 
    pick-guard is) AND hit the open notes after.


Section 1) intro riff with melody
Eb----------------------------0--------------------0--------------------------------------------------|
Bb------------0--x--0h2----------2p0------4p0---------------------------------------------------------|
Eb----2/4----------------0------------0----------------back to 1) intro riff once---and then----------|
D-----------0----------------------------------x------------------------------------------------------|
G-----------------------------1-----------3-----------------------------------------------------------|
C-----0-----------------------------------------------------------------------------------------------|


Eb----------------------------------
Bb----------------------------------
Eb----2/4-----0---x-----------------
D---------(0)----------0----0h1-----
G------------------------0--h1------ ...continue section 1
C-----0-----------------------------


Section 2)
Eb----------9--x---------7---x--------5--------[7]-x---------9---x--------7--x-------7--x-------------|
Bb---------5---x---------5---x--------5--------[9]-x---------11--x--------9--x-------9--x-------------|
Eb--------5----x---------5---x--------5--------[7]-x---------9---x--------7--x-------7--x------0------|
D--------5-----x---5---------x--5---------0--------x---0---------x--0--------x--0-------x--0----------|
G--------------x------5------x---------------0-----x------0------x-----0-----x----0-----x----0--------|
C-----5--roll--T-------------T-----5---------------T-------------T-----------T----------T-------------|
* A roll is quite simply an arpeggio played quickly, by placing your fingers on the target strings,
 and plucking them in order. 

Section 2) change section (quick pull-offs)
Eb---------4-x-------0--------------------------4-x------0--x------0--x-------------------------------|
Bb--------4--x-------0-------------------------4--x------0--x------0--x------0------------------------|
Eb-------4---x-------0--0---------------------4---x------0--x------0--x------0------------------------|
D-------5----x--5----------5p3p0-------------5----x--5------x--5------x--0---------back to 2) *-------|
G----/5------x----5--------------3p0------/5------x----5----x----5----x----0--------------------------|
C------------T-----------------------3p0----------T---------T---------T-------------------------------|
* - when returning to section 2), replace [7][9][7] with [11][12][11]


Section 2) - Bridge to Section 3)
Eb--------9--x-------7--x--------5--x------4--------4h5--4----4----x----------------------------------|
Bb--------5--x-------5--x--------5--x------4--------4----4----4----x----------------------------------|
Eb--------5--x-------5--x--------5--x------4--------4----4----4----x----------------------------------|
D------5-----x--5-------x---5-------x--0-----------------0----0----x----------------------------------|
G------------x-----5----x-----------x----0---0-0-0-------0----0----x----------------------------------|
C----5-------x----------x-----5-----x---------------T---------T----x----------------------------------|


Section 3)

Eb----**---*----------------------------------<12>ring-----------x-----------x-----------x------------|
Bb-------------------------------<12>---------<12>ring--------5--x-----------x-----------x-------<7>--|
Eb-----------<12>-x--------9----------------------------------5--x------<5>--x------<7>--x-------<7>--|
D----------x------------------x-----------0-----------------5----x------<5>--x------<7>--x------------|
G----<12>--x--------0---------x----------------------------------x--0--------x--0--------x--0---------|
C----<12>--x-----------10-------------10-------T----10\3-/5------T----3------T----5------T----7-------|

** - slam left middle finger on the 12th fret to ring harmonics with percussiveness
*  - lightly replace the same finger back on the 12th fret (but not fretting) 

Section 4) Ending / Bridge to very start again

Eb----------5-----------5----------------------7----------7-----------<7>-----<12>--------------------|
Bb---------5------------5----------5-----5-----7----------7----------<7>-------<12>-------------------|
Eb--------5-------------5----------5-----5-----7----------7---------<7>---------<12>------------------|
D--------5---------5--------------------------(7)--------(7)-------<7>-----------<12>-----------------|
G----------------------------------------T------------------------<7>-------------<12>----------------|
C------5-------T-----5------T--5---T--5--5/7------T---7---T------<7>---------------<12>---------------|
Добавлено: 18.04.2012
Вам также может быть интересно:
Другие материалы по этой песне:

Страница создана 18.04.2012
http://primanota.ru/erick-turnbull/low-c-chords.htm
Привет, Гость.
Предлагаем пройти революционный курс по гитаре.
Подарок от PrimaNota.Ru, забирай!