PrimaNota.ru - самый крупный в мире бесплатный архив песенных текстов, аккордов, табулатур и нот


Erick Turnbull - June Tune - таба, видео

Регистрация Запомнить меня
Войти через:  Facebook Google Twitter Vk Yandex Mail.ru

Erick Turnbull - June Tune - таба, видео

Печатать
Просмотров: 81
=============================================================================

Song: June Tune
Aritst:Erick Turnbull
Tabbed by: Charlie Lewis
Email: sci-fi-lullaby@hotmail.co.uk
Date: 28/11/2008


Right before you read this tab let me just say that it is NOT A COMPLETE TAB
IN TERMS OF SONG STRUCTURE. I have provided you with the parts and I recommend 
that you listen through to the song a few times to get the layout.
The tab as you see below is played all the way through in order, but then has
a couple of the parts varied a bit before the ending bit.
I tabbed this from his video on youtube and it took a while, I am not the best
guitarist in the world so don't bite my head off if there are a few wrong notes!
It sounds great when I play it but if you want to add things in
that you think should be there then of course go ahead.
You adding corrections and comments will help me too :) 
Let me just remind you that to my knowledge this is THE ONLY tab for this song 
on the whole internet (so far) so I hope I am doing a service to all the people 
I have noticed asking for this tab. 
It's an amazing song, really beautiful and it is actually not that hard to play 
if you can get your fingerpicking up to scratch! 
Have fun, it's worth the guitar re-tune!

TUNING: FACGCd

CAPO ON 2nd FRET!
TAB IS RELATIVE TO CAPO!

On the row of X's pat the strings and the body of the guitar, assuming you're using 
an acoustic..

INTRO

   1   2   3   4    1   2   3   4    1   2   3   4    1   2         
d||2---5---2-------|--------5-------|--3\2---2-------|0h2p0---||
C||0---0-----0-----|9---------------|---------------0|--------||
G||0---------------|------0-------0-|----------------|--------||
C||------------0---|----0-------0---|------------0---|--------||
A||----------------|8-------3-------|5-------3-------|3-------||
F||----------------|----------------|----------------|--------||

1st Bit


   1   2   3   4    1   2   3   4    1   2   3   4    1   2   3   4   
d||0---------0-----|----------0-----|----------------|0---------------||
C||----------0-----|0---------0-----|0---------0-----|0---------0-----||
G||------2---------|------2---2-----|------4---------|------4---------||
C||----0-------0---|----0-------0---|----4-------4---|----4-------4---||
A||----------------|----------------|0-------0-------|0-------0-------||
F||0-------0-------|0-------0-------|----------------|----------------||


   1   2   3   4    1   2   3   4    1   2   3   4    1   2   3   4   
d||----------------|----------------|----------------|0-------x-------||
C||0---------0-----|0---------0-----|0---------0-----|0-------x-------||
G||------2---------|------2---------|------4---------|4-------x-------||
C||----0-------0---|----0-------0---|----4-------4---|4-------x-------||
A||----------------|----------------|0-------0-------|0-------x-------||
F||0-------0-------|0-------0-------|----------------|----------------||

2nd bit


   1   2   3   4    1   2   3   4    1   2   3   4    1   2   3   4   
d||--------5-------|3-------2-------|--2-------2-----|--2-------2-----||
C||9---------------|----------------|2-------2-------|2-------2-------||
G||------0-------0-|------0-------0-|----------------|----------------||
C||----0-------0---|----0-------0---|----0-------0---|----0-------0---||
A||8-------3-------|5-------3-------|3-------3-------|3-------3-------||
F||----------------|----------------|----------------|----------------||


   1   2   3   4    1   2   3   4    1   2   3   4    1   2   3   4   
d||0-----------2---|--------2-------|----------------|0---------------||
C||----------0-----|0---------0-----|0---------0-----|0---------0-----||
G||------2---------|------2---------|------4---------|------4---------||
C||----0-------0---|----0-------0---|----4-------4---|----4-------4---||
A||----------------|----------------|0-------0-------|0-------0-------||
F||0-------0-------|0-------0-------|----------------|----------------||


   1   2   3   4    1   2   3   4    1   2   3   4    1   2   3   4   
d||2---------2-----|2---------------|5---------5-----|5---------5-----||
C||0---------------|0---------0-----|0---------------|0---------------||
G||------2---------|------2---------|------4---------|------4---------||
C||----0-------0---|----0-------0---|----4-------4---|----4-------4---||
A||----------------|----------------|0-------0-------|0-------0-------||
F||0-------0-------|0-------0-------|----------------|----------------||


   1   2   3   4    1   2   3   4    1   2   3   4    1   2   3   4   
d||----------------|----------------|----------------|--0-------------||
C||2-4-2---4-2-0---|--0-----2-------|--0-------0-----|----------0-----||
G||---------------0h2---------0-----|------4---------|------4---------||
C||----0-------0---|----0-------0---|----4-------4---|----4-------4---||
A||----------------|----------------|0-------0-------|0-------0-------||
F||2-------2-------|2-------2-------|----------------|----------------||


   1   2   3   4    1   2   3   4    1   2   3   4    1   2   3   4   
d||----------------|----------------|----------------|0-------x-------||
C||2-4-2---4-2-0---|--0-----2-------|--0-------0-----|0-------x-------||
G||---------------0h2---------0-----|------4---------|4-------x-------||
C||----0-------0---|----0-------0---|----4-------4---|4-------x-------||
A||----------------|----------------|0-------0-------|0-------x-------||
F||0-------0-------|0-------0-------|----------------|----------------||

3rd bit


   1   2   3   4    1   2   3   4    1   2   3   4    1   2      
d||--------5-------|3-------2-------|--2-------2-----|--2-----||
C||9---------------|----------------|2-------2-------|2-------||
G||------0-------0-|------0-------0-|----------------|--------||
C||----0-------0---|----0-------0---|----0-------0---|----0---||
A||8-------3-------|5-------3-------|3-------3-------|3-------||
F||----------------|----------------|----------------|--------||


   1   2   3   4    1   2   3   4    1   2   3   4    1   2   3   4   
d||0h2-------2-----|2---------------|5---------5-----|5---------5-----||
C||0---------------|0---------0-----|0---------------|0---------------||
G||------2---------|------2---------|------4---------|------4---------||
C||----0-------0---|----0-------0---|----4-------4---|----4-------4---||
A||----------------|----------------|0-------0-------|0-------0-------||
F||0-------0-------|0-------0-------|----------------|----------------||


   1   2   3   4    1   2   3   4    1   2   3   4    1   2   3   4   
d||7---------7-----|7---------------|10--------10----|9---------9-----||
C||----------------|----------0-----|----------------|----------------||
G||5-----5---------|------5---------|9-----9---------|------9---------||    

C||----0-------0---|----0-------0---|----0-------0---|----0-------0---||
A||----------------|----------------|0-------0-------|0-------0-------||
F||0-------0-------|0-------0-------|----------------|----------------||


   1   2   3   4    1   2   3   4    1   2   3   4    1   2   3   4   
d||----------------|----------------|----------------|--0-------------||
C||2-4-2---4-2-0---|--0-----2-------|--0-------0-----|----------0-----||
G||---------------0h2---------0-----|------4---------|------4---------||
C||----0-------0---|----0-------0---|----4-------4---|----4-------4---||
A||----------------|----------------|0-------0-------|0-------0-------||
F||2-------2-------|2-------2-------|----------------|----------------||


   1   2   3   4    1   2   3   4    1   2   3   4    1   2   3   4   
d||----------------|----------------|----------------|--0-------------||
C||2-4-2---4-2-0---|--0-----2-------|--0-------0-----|----------0-----||
G||---------------0h2---------0-----|------4---------|------4---------||
C||----0-------0---|----0-------0---|----4-------4---|----4-------4---||
A||----------------|----------------|0-------0-------|0-------0-------||
F||0-------0-------|0-------0-------|----------------|----------------||


   1   2   3   4    1   2   3   4    1   2   3   4    1   2   3   4   
d||----------------|----------------|----------------|0---------------||
C||2-------0-------|2-----2/4-------|0---------0-----|----------0-----||
G||-------0-------0|----------------|------4---------|------4---------||
C||----0-------0---|----0-------0---|----4-------4---|----4-------4---||
A||----------------|----------------|0-------0-------|0-------0-------||
F||2-------2-------|2-------2-------|----------------|----------------||


   1   2   3   4    1   2   3   4    1   2   3   4    1   2   3   4   
d||----------------|----------------|----------------|0-------x-------||
C||0h2-----0-------|2-------2/4-----|--0-------0-----|0-------x-------||
G||-------0-------0|-------0--------|------4---------|4-------x-------||
C||----0-------0---|----0-------0---|----4-------4---|4-------x-------||
A||----------------|----------------|0-------0-------|0-------x-------||
F||0-------0-------|0-------0-------|----------------|----------------||



Ending goes something like this...


   1   2   3   4    1   2   3   4    1   2   3   4    1   2   3   4   
d||--------5-------|3-------2-------|--------2-------|-----2-vibrato--||
C||9---------------|----------------|-----2----------|----0-----------||
G||------0-------0-|------0-------0-|--0-------------|---2------------||
C||----0-------0---|----0-------0---|----------------|--0-------------||
A||8-------3-------|5-------3-------|3---------------|-0--------------||
F||----------------|----------------|----------------|0---------------||


ENJOY!! Comments or constructive criticism welcome!!

| /  slide up
| \  slide down
| h  hammer-on
| p  pull-off
| ~  vibrato
| +  harmonic
| x  Mute note
===============================================================================
Добавлено: 04.05.2012
Вам также может быть интересно:
Другие материалы по этой песне:
  • Аккорды и текст

Страница создана 04.05.2012
http://primanota.ru/erick-turnbull/june-tune-chords.htm
Привет, Гость.
Предлагаем пройти революционный курс по гитаре.
Подарок от PrimaNota.Ru, забирай!