PrimaNota.ru - самый крупный в мире бесплатный архив песенных текстов, аккордов, табулатур и нот


Erica Mou - Oltre - таба, видео

Регистрация Запомнить меня
Войти через:  Facebook Google Twitter Vk Yandex Mail.ru

Erica Mou - Oltre - таба, видео

Печатать
Просмотров: 138
Уроки эстрадного вокала в Санкт-Петербурге
-------------------------------------------------------------------------------
                             Oltre-Erica Mou
-------------------------------------------------------------------------------
Tabbed by:Momo42

From the Third Verse play chords according to the song's rhytm.
Dal Terzo verso suonare gli accordi seguendo il ritmo della canzone.


Tuning:Standard

Chords:Am-02210
       G/C-320010 
       C-032010

Intro:
         Am                G/C               C               G/C
e|-------------------------------------------------------------0--------------|
B|------1------1--------1h3------1------0h1------1---------3-----3----3-------|
G|----2------2-------0---------0------0--------0---------0---0-----0----------| x2
D|----------------------------------------------------------------------------|
A|--0------0------2----------2------3--------3---------2----------------------|
E|----------------------------------------------------------------------------|

Verse 1:

         Am                G/C               C                G/C
e|-------------------------------------------------------------0--------------|
B|------1------1--------1h3------1------0h1------1---------3-----3----3-------|
G|----2------2-------0---------0------0--------0---------0---0-----0----------| x3
D|----------------------------------------------------------------------------|
A|--0------0------2----------2------3--------3---------2----------------------|
E|----------------------------------------------------------------------------|

Gocce appicicate lungo il vetro stanno scivolando
Sto seduta a destra dietro come ogni anno
oltre oltre oltre


Intermezzo/Interlude:

         Am                G/C               C                G/C
e|-------------------------------------------------------------0--------------|
B|------1------1--------1h3------1------0h1------1---------3-----3----3-------|
G|----2------2-------0---------0------0--------0---------0---0-----0----------| 
D|----------------------------------------------------------------------------|x1
A|--0------0------2----------2------3--------3---------2----------------------|
E|----------------------------------------------------------------------------|

Verse 2:

         Am                G/C               C               G/C
e|-------------------------------------------------------------0--------------|
B|------1------1--------1h3------1------0h1------1---------3-----3----3-------|
G|----2------2-------0---------0------0--------0---------0---0-----0----------| 
D|----------------------------------------------------------------------------|x4
A|--0------0------2----------2------3--------3---------2----------------------|
E|----------------------------------------------------------------------------|
Scarpe asciutte per non scivolare su questa strada 
sporca di principi scelti male ancora una volta
oltre, oltre, oltre
portami oltre, portami


Chorus/Ritornello:
         Am                G/C               C                G/C
e|-------------------------------------------------------------0--------------|
B|------1------1--------1h3------1------0h1------1---------3-----3----3-------|
G|----2------2-------0---------0------0--------0---------0---0-----0----------| 
D|----------------------------------------------------------------------------|x4
A|--0------0------2----------2------3--------3---------2----------------------|
E|----------------------------------------------------------------------------|


oltre, le apparenze, 
oltre le stupide credenze 
oltre le lotte, oltre la sorte
portami, Oltre


Interlude/Intermezzo:
         Am                G/C               C                G/C
e|-------------------------------------------------------------0--------------|
B|------1------1--------1h3------1------0h1------1---------3-----3----3-------|
G|----2------2-------0---------0------0--------0---------0---0-----0----------| 
D|----------------------------------------------------------------------------|x1
A|--0------0------2----------2------3--------3---------2----------------------|
E|----------------------------------------------------------------------------|


Verse 3:
Am         G/C     C    G/C   
Convenevoli saluti frasi fatte
     Am                G/C           C   G/C
parcheggiate in questo intrigo di risate false e acute
Am   G/C   C       G/C  
oltre oltre oltre portami 
Am    G/C   C  
oltre 
G/C
portami



Chorus/Ritornello:
Am        G/C
oltre le apparenze
C         G/C      Am
oltre le stupide credenze
           G/C
oltre le lotte
           C
oltre stanotte
 G/C     Am            G/C   
Portami oltre le apparenze
C           G/C       Am  
oltre le stupide credenze
           G/C
oltre le lotte
           C
oltre la morte
 G/C
portami

         Am                G/C               C                G/C
e|-------------------------------------------------------------0--------------|
B|------1------1--------1h3------1------0h1------1---------3-----3----3-------|
G|----2------2-------0---------0------0--------0---------0---0-----0----------| 
D|----------------------------------------------------------------------------|
A|--0------0------2----------2------3--------3---------2----------------------|
E|----------------------------------------------------------------------------|
                                                      oltre...

Ending/Finale: 

        Am                G/C               C                G/C
e|-------------------------------------------------------------0--------------|
B|------1------1--------1h3------1------0h1------1---------3-----3----3-------|
G|----2------2-------0---------0------0--------0---------0---0-----0----------| 
D|----------------------------------------------------------------------------|x2
A|--0------0------2----------2------3--------3---------2----------------------|
E|----------------------------------------------------------------------------|

   Am               
e|-------|
B|--1----|
G|--2----| 
D|--2----|
A|--0----|
E|-------|




************************************

| /   slide up
| \   slide down
| h   hammer-on
| p   pull-off
| ~   vibrato
| +   harmonic
| x   Mute note
| b   Bend
| pb  Pre-bend
| br  Bend release
| pbr Pre-bend release
| brb Bend release bend

************************************
Добавлено: 09.06.2013
Другие материалы по этой песне:
  • Аккорды и текст

Страница создана 09.06.2013
http://primanota.ru/erica-mou/oltre-chords.htm
Привет, Гость.
Предлагаем пройти революционный курс по гитаре.
Подарок от PrimaNota.Ru, забирай!