PrimaNota.ru - самый крупный в мире бесплатный архив песенных текстов, аккордов, табулатур и нот


Erica Mou - Giungla - таба, видео

Регистрация Запомнить меня
Войти через:  Facebook Google Twitter Vk Yandex Mail.ru

Erica Mou - Giungla - таба, видео

Печатать
Просмотров: 90
Уроки эстрадного вокала в Санкт-Петербурге
-------------------------------------------------------------------------------
                             Giungla - Erica Mou
-------------------------------------------------------------------------------
Tabbed by:Momo 42


Tuning:Standard

Intro:

e|--------------------------------------------------------------------x---|
B|--------------------------------------------------------------------x---|
G|---------------0------------------0-----------------0---------------x---|
D|------0p2--------2-------0p2--------2-------0p2--------2-------0p2--x---|
A|----2-------2----------2-------2----------2-------2----------2------x---|
E|--0-------0----------0-------0----------0-------0----------0--------x---|

Verse 1:

e|----------------------------------------------------------------------------------|
B|----------------------------------------------------------------------------------|
G|---------------0------------------0-----------0--------0-------0----------0-------|
D|------0p2--------2-------0p2--------2-------2---2--------2-------2------4---4-----|
A|----2-------2----------2-------2----------3---------3--------3---------5----------|
E|--0-------0----------0-------0----------------------------------------------------|

   In questa giungla di abitudini, viaggio soltanto con i documentari in tv

e|----------------------------------------------------------------------------------|
B|----------------------------------------------------------------------------------|
G|---------------0------------------0-----------0--------0-------0----------0-------|
D|------0p2--------2-------0p2--------2-------2---2--------2-------2------4---4-----|
A|----2-------2----------2-------2----------3---------3--------3---------5----------|
E|--0-------0----------0-------0----------------------------------------------------|

In questa giungla di abitudini,credo che con un discorso ben sceneggiato, potrei 
risolvere tutto.

e|----------------------------------------------------------------------------------|
B|----------------------------------------------------------------------------------|
G|---------------0------------------0-----------0--------0-------0----------0-------|
D|------0p2--------2-------0p2--------2-------2---2--------2-------2------4---4-----|
A|----2-------2----------2-------2----------3---------3--------3---------5----------|
E|--0-------0----------0-------0----------------------------------------------------|

Allora cerco di parlare bene, ma pare sia il mio accento a non andare bene.

e|--0---|
B|--3---|
G|--0---|
D|--2---|
A|--3---|
E|--0---|
E vorrei soltanto essere in me.

e|--------------------------------------------0----|
B|--------------------------------------------3----|
G|-----------------0------------------0-------0----|
D|-------0p2---------2-------0p2--------2-----2----|
A|-----2--------2----------2-------2----------3----|
E|---0--------0----------0-------0------------0----|
                                             E vorrei soltanto essere in me.


Interlude/Intermezzo:
e|--------------------------------------------------------------------x---|
B|--------------------------------------------------------------------x---|
G|---------------0------------------0-----------------0---------------x---|
D|------0p2--------2-------0p2--------2-------0p2--------2-------0p2--x---|
A|----2-------2----------2-------2----------2-------2----------2------x---|
E|--0-------0----------0-------0----------0-------0----------0--------x---|

Verso 2:
e|----------------------------------------------------------------------------------|
B|----------------------------------------------------------------------------------|
G|---------------0------------------0-----------0--------0-------0----------0-------|
D|------0p2--------2-------0p2--------2-------2---2--------2-------2------4---4-----|
A|----2-------2----------2-------2----------3---------3--------3---------5----------|
E|--0-------0----------0-------0----------------------------------------------------|

In questa giungla di abitudini, mi convinco che sia solo un problema mio svegliarmi la 
mattina spettinata.

e|----------------------------------------------------------------------------------|
B|----------------------------------------------------------------------------------|
G|---------------0------------------0-----------0--------0-------0----------0-------|
D|------0p2--------2-------0p2--------2-------2---2--------2-------2------4---4-----|
A|----2-------2----------2-------2----------3---------3--------3---------5----------|
E|--0-------0----------0-------0----------------------------------------------------|
In questa giungla di abitudini, mi convinco che sia solo un problema mio non comprare il 
primo vestito che provo in un negozio, che a volte.

e|----------------------------------------------------------------------------------|
B|----------------------------------------------------------------------------------|
G|---------------0------------------0-----------0--------0-------0----------0-------|
D|------0p2--------2-------0p2--------2-------2---2--------2-------2------4---4-----|
A|----2-------2----------2-------2----------3---------3--------3---------5----------|
E|--0-------0----------0-------0----------------------------------------------------|
Sta bene al manichino e non a me,Sta bene al manichino e non a me...


e|---3-3-3-3-3-3-3-3-3-3-3-------|
B|---3-3-3-3-3-3-3-3-3-3-3-------|
G|---0-0-0-0-0-0-0-0-0-0-0-------|x2
D|---2-2-2-2-2-2-2-2-2-2-2-------|
A|---2-2-2-2-2-2-2-2-2-2-2-------|
E|---0-0-0-0-0-0-0-0-0-0-0-------|

Sta bene al manichino e non a me, Sta bene al manichino e non a me

e|---3-3-3-3-3-3-3-3-3-3-3--------|
B|---3-3-3-3-3-3-3-3-3-3-3--------|
G|---0-0-0-0-0-0-0-0-0-0-0--------|x2
D|---2-2-2-2-2-2-2-2-2-2-2--------|
A|---3-3-3-3-3-3-3-3-3-3-3--------|
E|---0-0-0-0-0-0-0-0-0-0-0--------|

Sta bene al manichino..
Sta bene al manichino..

e|--0---|
B|--3---|
G|--0---|
D|--2---|
A|--3---|
E|--0---|
E vorrei soltanto essere in me.

Interlude/Intermezzo

e|--3-3-3-3--3-3-3-3--3-3-3-3--3-3-3-3----|
B|--3-3-3-3--3-3-3-3--3-3-3-3--3-3-3-3----|
G|--0-0-0-0--0-0-0-0--0-0-0-0--0-0-0-0----|x2
D|--2-2-2-2--2-2-2-2--0-0-0-0--0-0-0-0----|
A|--2-2-2-2--3-3-3-3--2-2-2-2--x-x-x-x----|
E|--0-0-0-0--0-0-0-0--3-3-3-3--2-2-2-2----|

Verse 2:
e|--3-3-3-3--3-3-3-3--3-3-3-3--3-3-3-3----|
B|--3-3-3-3--3-3-3-3--3-3-3-3--3-3-3-3----|
G|--0-0-0-0--0-0-0-0--0-0-0-0--0-0-0-0----|x2
D|--2-2-2-2--2-2-2-2--0-0-0-0--0-0-0-0----|
A|--2-2-2-2--3-3-3-3--2-2-2-2--x-x-x-x----|
E|--0-0-0-0--0-0-0-0--3-3-3-3--2-2-2-2----|

In questa giungla di abitudini,
per andare avanti sposto i rami, ma mi tornano in faccia.
Servirebbe una maschera di plastica, per ripararsi il volto,
riuscire a farsi largo, una maschera che..

e|---3-3-3-3-3-3-3-3-3-3-3-------|
B|---3-3-3-3-3-3-3-3-3-3-3-------|
G|---0-0-0-0-0-0-0-0-0-0-0-------|x2
D|---2-2-2-2-2-2-2-2-2-2-2-------|
A|---2-2-2-2-2-2-2-2-2-2-2-------|
E|---0-0-0-0-0-0-0-0-0-0-0-------|

Sta bene al manichino e non a me, Sta bene al manichino e non a me

e|---3-3-3-3-3-3-3-3-3-3-3--------|
B|---3-3-3-3-3-3-3-3-3-3-3--------|
G|---0-0-0-0-0-0-0-0-0-0-0--------|
D|---2-2-2-2-2-2-2-2-2-2-2--------|x2
A|---3-3-3-3-3-3-3-3-3-3-3--------|
E|---0-0-0-0-0-0-0-0-0-0-0--------|

Sta bene al manichino..
Sta bene al manichino..

e|--0---|
B|--3---|
G|--0---|
D|--2---|
A|--3---|
E|--0---|
E vorrei soltanto essere in me.

Interlude/Intermezzo:
e|--------------------------------------------------------------------x---|
B|--------------------------------------------------------------------x---|
G|---------------0------------------0-----------------0---------------x---|
D|------0p2--------2-------0p2--------2-------0p2--------2-------0p2--x---|
A|----2-------2----------2-------2----------2-------2----------2------x---|
E|--0-------0----------0-------0----------0-------0----------0--------x---|

Verse 3:

e|----------------------------------------------------------------------------------|
B|----------------------------------------------------------------------------------|
G|---------------0------------------0-----------0--------0-------0----------0-------|
D|------0p2--------2-------0p2--------2-------2---2--------2-------2------4---4-----|
A|----2-------2----------2-------2----------3---------3--------3---------5----------|
E|--0-------0----------0-------0----------------------------------------------------|

In questa giungla di abitudini, vivo soltanto con i reality

e|----------------------------------------------------------------------------------|
B|----------------------------------------------------------------------------------|
G|---------------0------------------0-----------0--------0-------0----------0-------|
D|------0p2--------2-------0p2--------2-------2---2--------2-------2------4---4-----|
A|----2-------2----------2-------2----------3---------3--------3---------5----------|
E|--0-------0----------0-------0----------------------------------------------------|
In questa giungla di abitudini,credo che con movimenti coreografati, potrei risolvere tutto.

e|----------------------------------------------------------------------------------|
B|----------------------------------------------------------------------------------|
G|---------------0------------------0-----------0--------0-------0----------0-------|
D|------0p2--------2-------0p2--------2-------2---2--------2-------2------4---4-----|
A|----2-------2----------2-------2----------3---------3--------3---------5----------|
E|--0-------0----------0-------0----------------------------------------------------|

Allora cerco di ballare bene, ma pare sia il mio corpo a non andare bene.

e|--0---|
B|--3---|
G|--0---|
D|--2---|
A|--3---|
E|--0---|
E vorrei soltanto essere in me.

e|--------------------------------------------0----|
B|--------------------------------------------3----|
G|-----------------0------------------0-------0----|
D|-------0p2---------2-------0p2--------2-----2----|
A|-----2--------2----------2-------2----------3----|
E|---0--------0----------0-------0------------0----|
                                             E vorrei soltanto essere in me.

Interlude/Intermezzo:
e|--------------------------------------------------------------------x---|
B|--------------------------------------------------------------------x---|
G|---------------0------------------0-----------------0---------------x---|
D|------0p2--------2-------0p2--------2-------0p2--------2-------0p2--x---|
A|----2-------2----------2-------2----------2-------2----------2------x---|
E|--0-------0----------0-------0----------0-------0----------0--------x---|

Verse 4:

e|----------------------------------------------------------------------------------|
B|----------------------------------------------------------------------------------|
G|---------------0------------------0-----------0--------0-------0----------0-------|
D|------0p2--------2-------0p2--------2-------2---2--------2-------2------4---4-----|
A|----2-------2----------2-------2----------3---------3--------3---------5----------|
E|--0-------0----------0-------0----------------------------------------------------|

In questa giungla di abitudini, mi convinco che si possa davvero viaggiare aggrappati ad 
una liana di speranza.

Ending/Finale:
e|--------------------------------------------------------------------x---|
B|--------------------------------------------------------------------x---|
G|---------------0------------------0-----------------0---------------x---|
D|------0p2--------2-------0p2--------2-------0p2--------2-------0p2--x---|
A|----2-------2----------2-------2----------2-------2----------2------x---|
E|--0-------0----------0-------0----------0-------0----------0--------x---|


************************************

| /   slide up
| \   slide down
| h   hammer-on
| p   pull-off
| ~   vibrato
| +   harmonic
| x   Mute note
| b   Bend
| pb  Pre-bend
| br  Bend release
| pbr Pre-bend release
| brb Bend release bend

************************************
Добавлено: 11.06.2013
Вам также может быть интересно:
Другие материалы по этой песне:
  • Аккорды и текст

Страница создана 11.06.2013
http://primanota.ru/erica-mou/giungla-chords.htm
Привет, Гость.
Предлагаем пройти революционный курс по гитаре.
Подарок от PrimaNota.Ru, забирай!