PrimaNota.ru - самый крупный в мире бесплатный архив песенных текстов, аккордов, табулатур и нот


Eric Serra - Congabass - бас-таба, видео

Регистрация Запомнить меня
Войти через:  Facebook Google Twitter Vk Yandex Mail.ru

Eric Serra - Congabass - бас-таба, видео

Печатать
Просмотров: 136
CongaBass - Eric Serra
from Album : Subway Original soundtrack

Retranscription : Raphael Freydier
Raphael.Freydier@mail.dotcom.fr

- See conventions at the end -
 

G|---7-9-----9---6|---7-7--7-7-----|---7-9-----9---6|---7-7--7-7-----|
D|----------------|----------------|----------------|----------------|
A|7-x----77-x-4-x-|5-x---55----4~~/|7-x-------x-4-x-|5-x---55----4~~/|
E|----------------|----------------|-------00-------|----------------|
  .   .   .   .    .   .   .   .    .   .   .   .    .   .   .   .   


|---7-9-----9---6|---7-7--7-7-----|---7-9-----9---6|---7-7--7-7-----|
|----------------|----------------|----------------|----------------|
|7-x-------x-4-x-|5-x---55----4~~/|7-x-------x-4-x-|5-x---55----4~~\|
|-------00-------|----------------|-------00-------|----------------|
 .   .   .   .    .   .   .   .    .   .   .   .    .   .   .   .   


|---4-4----4--6--|---7-7----7--8--|------------------CD|----------------|
|----------------|----------------|----------------CD--|----------------|
|2-x----22x-x4---|5-x----55--x6---|------------CDE-----|------------4~~\|
|----------------|----------------|0-00-0-00-----------|0-00-0-00-------|
 .   .   .   .    .   .   .   .    .   .   .°°°-°°°.    .   .   .   .


|---4-4----4--6--|---7-7----7--8--|------------------CD|------------6~~~|
|----------------|----------------|----------------CD--|------------5~~~|
|2-x----22x-x4---|5-x----55x-x6---|7-77-7-77---CDE-----|----------------|
|----------------|----------------|--------------------|0-00-0-00-------|
 .   .   .   .    .   .   .   .    .   .   .°°°-°°°.    .   .   .   .


|---7-9-----9---6|---7-7--7-7-----|---7-9-----9---6|---7-7--7-7-----|
|----------------|----------------|----------------|----------------|
|7-x-------x-4-x-|5-x---55----4~~/|7-x-------x-4-x-|5-x---55----4~~/|
|-------00-------|----------------|-------00-------|----------------|
 .   .   .   .    .   .   .   .    .   .   .   .    .   .   .   .   


|---7-9-----9---6|---7-7--7-7-----|---7-9-----9---6|---7-7--7-7-----|
|----------------|----------------|----------------|----------------|
|7-x-------x-4-x-|5-x---55----4~~/|7-x-------x-4-x-|5-x---55----4~~\|
|-------00-------|----------------|-------00-------|----------------|
 .   .   .   .    .   .   .   .    .   .   .   .    .   .   .   .   


|---4-4----4--6--|---7-7----7--8--|------------------CD|----------------|
|----------------|----------------|----------------CD--|----------------|
|2-x----22x-x4---|5-x----55x-x6---|------------CDE-----|------------4~~\|
|----------------|----------------|0-00-0-00-----------|0-00-0-00-------|
 .   .   .   .    .   .   .   .    .   .   .°°°-°°°.    .   .   .   .


|---4-4----4--6--|---7-7----7--8--|------------------CD|------------6~~~|
|----------------|----------------|----------------CD--|------------5~~~|
|2-x----22x-x4---|5-x----55x-x6---|7-77-7-77---CDE-----|----------------|
|----------------|----------------|--------------------|0-00-0-00-------|
 .   .   .   .    .   .   .   .    .   .   .°°°-°°°.    .   .   .   .


|---7-9-----9---6|---7-7--7-7-----|---7-9-----9---6|---7-7--7-7-----|
|----------------|----------------|----------------|----------------|
|7-x-------x-4-x-|5-x---55----4~~/|7-x-------x-4-x-|5-x---55----4~~/|
|-------00-------|----------------|-------00-------|----------------|
 .   .   .   .    .   .   .   .    .   .   .   .    .   .   .   .   


|---7-9-----9---6|---7-7--7-7-----|---7-9-----9---6|---7-7--7-7-----|
|----------------|----------------|----------------|----------------|
|7-x-------x-4-x-|5-x---55----4~~/|7-x-------x-4-x-|5-x---55----4~~/|
|-------00-------|----------------|-------00-------|----------------|
 .   .   .   .    .   .   .   .    .   .   .   .    .   .   .   .   


|7h9~~~~~~~~~~~~~|----------------|----------------|----------------|
|----------------|7h9~~~~~~~~~~~~~|7p5~~~~~~~~~~~~~|7h9p7~~~~~~~~~~~|
|----------------|----------------|----------------|----------------|
|----------------|----------------|----------------|----------------|
 .   .   .   .    .   .   .   .    .   .   .   .    .   .   .   .   


|----------------||
|----------------||
|7~~~~~\\\\\-----||
|----------------||
 .   .   .   . 

 
Conventions :
-------------
Rythm is printed under the Tabs with dots for every beat, a space for
each quarter of beat, and, for some particularly speedy ones a
decomposition in 8th of beat as in :

      123456781
      .°°°-°°°.

Also, on some bars, you'll find letters meaning A=10, B=11, and so on 
(C,D and E are 12, 13 and 14 here)

An "-x-" means a muted note (one that is not fingered cleanly and makes a
percussive sound rather than a clear tone), and is the same note
than the previous one on the same string , that is :

  --7-x--    means    --7-7--  , with the second 'muted'
  
other signs :
  ~ (~~~) mean a vibrato on the note (for the specified duration)
  \ (or / ) means a slide down (or up) from the note
  p means a pull : eg. 7p5 means you play 7 and you pull off to 5
  h means a hammer-on : eg. 5p7 means you play 5 and you hammer on 7

Hope you'll love it !...
Добавлено: 22.05.2012
Другие материалы по этой песне:
  • Аккорды и текст

Страница создана 22.05.2012
http://primanota.ru/eric-serra/congabass-chords.htm
Привет, Гость.
Предлагаем пройти революционный курс по гитаре.
Подарок от PrimaNota.Ru, забирай!