PrimaNota.ru - самый крупный в мире бесплатный архив песенных текстов, аккордов, табулатур и нот


Eric Roche - Smells Like Teen Spirit - таба, видео

Регистрация Запомнить меня
Войти через:  Facebook Google Twitter Vk Yandex Mail.ru

Eric Roche - Smells Like Teen Spirit - таба, видео

Печатать
Просмотров: 395
-------------------------------------------------------------------------------
                             SMELLS LIKE TEEN SPIRIT
                                   ERIC ROCHE
-------------------------------------------------------------------------------
Tabbed by:Alan Brown
Email:aladonna@talktalk.net

Tuning:DADGAD

My simplified version of the late and great Eric Roche's Smells Like Teen Spirit.
I know the tab's not on the mark but just use it, with his video, to make it your
own and perhaps post improvements on my version.  Listen to his video for the 
changes and composition.  Have fun. 

    >                                     >
D|-0-0-0---------0-0---0-0---------------0-0-0---------0-0---0-0-------------|
A|-0-0-0---------0-0---0-0---------------0-0-0---------0-0---0-0-------------|
G|-5-7-7---------0-0-0-0-0---------0-0-0-5-7-7---------0-0-0-0-0---------0-0-|
D|-0-0-0-x-x-x-x-5-5-0-3-3-x-x-x-x-8-8-0-0-0-0-x-x-x-x-5-5-0-3-3-x-x-x-x-8-8-|
A|-3-5-5-x-x-x-x-5-5-0-3-3-x-x-x-x-8-8-0-3-5-5-x-x-x-x-5-5-0-3-3-x-x-x-x-8-8-|
D|-0-0-0-x-x-x-x-5-5-0-3-3-x-x-x-x-8-8-0-0-0-0-x-x-x-x-5-5-0-3-3-x-x-x-x-8-8-|
      
       H H    LET HARMONICS RING        H H                              H H
D|-------12----------------------------------------------------------------7-|
A|-----12------------------------------------------------------------------7-|
G|-------------------------------------------------------------------------7-|
D|----------------------------------------12-----------------------------7---|
A|--------------------------------------12-----------------------------------|
D|-0-0------5-5-5-5-3-3-3-3-8-8-8-8-0-0------5-5-5-5-3-3-3-3-8-8-8-8-0-0-----|

  I prefer to let the harmonics ring fully rather than the percussive rhythmic 
  finger taps used in his video.

                               H H
D|-------------------------------5-------------------------------------------|
A|-----------------------------5---------------------------------------------|
G|---------------------------------------------------------------------------|
D|---------------------------------------------------------------------------|
A|---------------------------------------------------------------------------|
D|-5-5-5-5-3-3-3-3-8-8-8-8-0-0-----5-5-5-5-3-3-3-3-8-8-8-8-------------------|


D|---------0-----0-0---------------------------------------------0-----0----------|
A|------3------------3-1-0-------H---------------------------3-------------3-1-0--|
G|----2------0-----------------2-3-2---0-----2-2-0---------2------0---------------|
D|-------------3----------------------0----3-------3-2---------------3------------|
A|-----------------1---------------------------1-------------------------1--------|
D|-0-0----5---3------------0-0-------5---3-------------0-0-----5---3--------------|

                               |    REPEAT THIS MEASURE X 4        |
D|-----------------------------|-----------------------------------|---------|
A|------h----------------------|-----------------------------------|---------|
G|-----2-3-2---0-----2-2-0----------h---------h---------h--------------------|
D|------------0----3-------3-2-----2-3-2-5-5-2-3-2-3-3-2-3-2---3-2-0---------|
A|---------------------1-----------------5-5-------3-3-------1---------------|
D|-0-0-------5---3-------------0-0-------5-5-------3-3-------+--------0-0----|
                                                             + or 2 on low E string.
                                                             seems to work on the
                                                             walk down, use the thumb.
   |DROP A1 & D0 ON INTRO FROM PREVIOUS 
   |SECTION TO MAKE TRANSITION EASIER.
   |    p                  |    p    X3        |        >>>>>>>>> PULL OFF 
D|-3-3-2-0-0--5-5-5--3-3---3-3-2-0-0--5-5-5--3-3-------3-------------------0----|
A|-0-0-0-0-0--0-0-0--0-0---0-0-0-0-0--0-0-0--0-0--------------------------0-----|
G|-2-2-0-0-0--4-4-4--2-2---2-2-0-0-0--4-4-4--2-2-------2-----------------0------|
D|-3-3-2-0-0--0-0-0--0-0---3-3-2-0-0--0-0-0--0-0------------------------0-------|
A|-------------------------1-1-----------------------------------------0--------|
D|------------5-5-5--3-3---0-0--------5-5-5--3-3-------3--------------0---------|
                      

   |        H     >  PULL OFF X4      |       H H    REPEAT PREVIOUS HARMONIC RUN
D|-0-0-0-1--13----------------------0-|---------12----------------------------------|
A|-0-0-0-1--13---------------------0--|-------12------------------------------------|
G|-0-0-0-1--13----h-p-------------0-------------------------------------------------|
D|-0-0-0-1--13---5---5-5-3-3-1---0-----------------------------------------------12-|
A|-0-0-0-1--13---5-6-5-5-3-3-1--0----------------------------------------------12---|
D|-0-0-0-1--13---5-6-5-5-3-3-1-0----------0-0------5-5-5-5-3-3-3-3-8-8-8-8-0-0------|


  THE BRIDGE X4 TIMES    OR THIS FOR EASE        OR EVEN THIS..... HAVE FUN.
D|-------------0-5----|-------------0--0-5----|---------------0-5------------------|
A|-8-8-8-8-8---0-5----|-8-8-8-8-8---0--0-5----|-8-----8-8-8---0-5------------------|
G|-5-5-5-5-5---0------|-5-5-5-5-5------0------|-5-----5-5-5---0--------------------|
D|--------------------|-----------------------|------------------------------------|
A|--------------------|-----------------------|------------------------------------|
D|-0---5-----3-----8--|-0-----5------3-----8--|-0-0-0-5-----3-----8----------------|

 MIDDLE SECTION MINUS THE THUMB PIC WHA  H H
D|--5-5-5-5-5-5-5-5-5-5-5-5-5-5-5-5-5-5----12----------------| ETC...
A|--5-5-5-5-5-5-5-5-5-5-5-5-5-5-5-5-5-5--12------------------|
G|-----------------------------------------------------------|
D|-----------------------------------------------------------|
A|-----------------------------------------------------------|
D|-8-8-8-8-7-7-7-7-6-6-6-6-6-6-8-8-6-6---0-0--5-5-5-5-3-3-3--|

       H H                              H H                              H H
D|-------12----------------------------------------------------------------7-------|
A|-----12------------------------------------------------------------------7-------|
G|-------------------------------------------------------------------------7-------|
D|----------------------------------------12-----------------------------7---------|
A|--------------------------------------12-----------------------------------------|
D|-0-0------5-5-5-5-3-3-3-3-8-8-8-8-0-0------5-5-5-5-3-3-3-3-8-8-8-8-0-0-----------|

                               H H                        END
D|-------------------------------5-----------------5-5-5-5--2-------|
A|-----------------------------5-------------------5-5-5-5--2-------|
G|-------------------------------------------------5-5-5-5--2-------|
D|-------------------------------------------------5-5-5-5--3-------|
A|-------------------------------------------------5-5-5-5--0-------|
D|-5-5-5-5-3-3-3-3-8-8-8-8-0-0-----5-5-5-5-3-3-3-3-8-8-8-8--0-------|


Same chords are used for his amazing wha wha electric guitar section although I haven't
quite worked out how he does this yet LOL. Again use this tab a loose guide only and 
embelish it with your own style..............Apparently he uses his thumb pic to scrape 
the guitar's body next to the fretboard in a very fast rythmic motion.  Personally i don't
use a thumb pic so ho! hum! I've made up my own alternative middle section.

| /  slide up
| \  slide down
| h  hammer-on
| p  pull-off
| ~  vibrato
| H  harmonic
| x  Mute note
===============================================================================
Добавлено: 06.05.2012
Вам также может быть интересно:
Другие материалы по этой песне:

Страница создана 06.05.2012
http://primanota.ru/eric-roche/smells-like-teen-spirit-chords.htm
Привет, Гость.
Предлагаем пройти революционный курс по гитаре.
Подарок от PrimaNota.Ru, забирай!