PrimaNota.ru - самый крупный в мире бесплатный архив песенных текстов, аккордов, табулатур и нот


Eric Lapointe - On Commence A Quitter - таба, видео

Регистрация Запомнить меня
Войти через:  Facebook Google Twitter Vk Yandex Mail.ru

Eric Lapointe - On Commence A Quitter - таба, видео

Печатать
Просмотров: 103
Solo de "On commence à s'quitter"
par Eric Lapointe 
Album: a l'ombre de l'ange
transcript By Stephane Galibois
e-mail: gabstevens@hotmail.com

This work is my interpretation of the solo.  It is not the exact same notes
but
it "fakes" it OK.

----|-------------------------------|---------------------------------------
----|---------5-6-8-6-5-------------|------------------15-13-13--12b13------
----|--------5---------5------------|----------------12--------14------14-12-14
----|--8-----------------8-8-7-5----|---10/12-13-14-------------------------
----|---------------------------8---|---------------------------------------
                                                                         
                

----|-----------------------------------------15---------16----------19------20
----|--10-----------13-----------17-----------18b20~~~---19b21~~~~---22b24--
----|--12b14~~~~----15b17~~~~----19b21~~~-----------------------------------
----|-----------------------------------------------------------------------
----|-----------------------------------------------------------------------
----|-----------------------------------------------------------------------
     
Добавлено: 30.09.2013
Другие материалы по этой песне:
  • Аккорды и текст

Страница создана 30.09.2013
http://primanota.ru/eric-lapointe/on-commence-a-quitter-chords.htm
Привет, Гость.
Предлагаем пройти революционный курс по гитаре.
Подарок от PrimaNota.Ru, забирай!