PrimaNota.ru - самый крупный в мире бесплатный архив песенных текстов, аккордов, табулатур и нот


Eric Lapointe - Coupable - таба, видео

Регистрация Запомнить меня
Войти через:  Facebook Google Twitter Vk Yandex Mail.ru

Eric Lapointe - Coupable - таба, видео

Печатать
Просмотров: 85


e------------------------------------------------
B------------------------------------------------
G------------------------------------------------
D------------------------------------------------
A--9-9--9-10-9---7-7--9-10-9---------------------
E--7-7-----------5-5-----------------------------

e------------------------------------------------
B------------------------------------------------
G------------------------------------------------
D------------------------------------------------
A--2--2-2--2-4-----5--5-5--7-9-10----------------
E--0--0-0------2---3--3-3--5-7-8-----------------

Добавлено: 08.09.2013
Другие материалы по этой песне:
  • Аккорды и текст

Страница создана 08.09.2013
http://primanota.ru/eric-lapointe/coupable-chords.htm
Привет, Гость.
Предлагаем пройти революционный курс по гитаре.
Подарок от PrimaNota.Ru, забирай!