PrimaNota.ru - самый крупный в мире бесплатный архив песенных текстов, аккордов, табулатур и нот


Eric Johnson - Rock Me Baby Live - бас-таба, видео

Регистрация Запомнить меня
Войти через:  Facebook Google Twitter Vk Yandex Mail.ru

Eric Johnson - Rock Me Baby Live - бас-таба, видео

Печатать
Просмотров: 49
Rock Me Baby
B.B King
As played by Roscoe Beck with Eric Johnson on Austin City Limits, 1996
TablEdited by David Walden
Tuning: Standard
4/4

 1Swing Feel      |       |       2|       |       |       |        
G|--------------------------------|--------------------------------|
D|--------------------------------|--------------------------------|
A|--------------------------------|--------------------------------|
E|--------------------------------|5---5---5---5---5---5---5---5---|
 
 3|       |       |       |       4|       |       |       |        
G|--------------------------------|--------------------------------|
D|--------------------------------|--------------------------------|
A|--------------------------------|--------------------------------|
E|5---5---5---5---5---5---5---3---|5---5---5---5---5---5---5---5---|
 
 5|       |       |       |       6|       |       |       |        
G|--------------------------------|--------------------------------|
D|--------------------------------|--------------------------------|
A|--------------------------------|--------------------------------|
E|5---5---5---5---1---1---3---3---|5---5---5---5---5---5---5---5---|
 
 7|       |       |       |       8|       |       |       |        
G|--------------------------------|--------------------------------|
D|--------------------------------|--------------------------------|
A|--------------------------5-7---|--------------------------------|
E|5---5---5---5---5---5---8-------|5---5---5---5---5---5---5---5---|
 
 9|       |       |       |       10       |       |       |        
G|--------------------------------|--------------------------------|
D|--------------------------------|--------------------------------|
A|--------------------------------|--------------------------------|
E|5---5---5---5---12/-5---X-0-3---|5---5---5---5---5---5---5---5---|
 
 11       |       |       |       12       |       |       |        
G|--------------------------------|--------------------------------|
D|--------------------------------|--------------------------------|
A|--------------------------5-7---|--------------------------------|
E|5---5---5---5---5---5---8-------|5---5---5---5---5---5---5---5---|
 
 13       |       |       |       14       |       |       |        
G|--------------------------------|--------------------------------|
D|--------------------------------|--------------------------------|
A|3---0---2---0-------------3-2---|0-------------------------------|
E|----------------0---0---3-------|----5---5---5---5---5---5---5---|
 
 15       |       |       |       16       |       |       |        
G|--------------------------------|--------------------------------|
D|--------------------------------|--------------------------------|
A|--------------------------------|--------------------------------|
E|5---5---5---5/--0---0---3---3---|5---5---5---5---5---5---5---5---|
 
 17       |       |       |       18       |       |       |        
G|--------------------------------|--------------------------------|
D|--------------------------5-7---|--------------------------------|
A|--------------------5---7-------|------------------------3-------|
E|5---5---5---5---5-8-------------|5---5---5---5---5---5-------3---|
 
 19       |       |       |       20       |       |       |        
G|--------------------------------|--------------------------------|
D|--------------------------------|--------------------------------|
A|--------------------------------|--------------------------------|
E|5---5---5---5---5---5h--7---7---|5---5---5---5---5---5---5---5---|
 
 21       |       |       |       22       |       |       |        
G|--------------------------5-----|--------------------------------|
D|------------------------5---7---|--------------------------------|
A|------------------5-7-----------|--------------------------------|
E|5---5---5---5---8---------------|5---5---5---5---5---5---5---5---|
 
 23       |       |       |       24       |       |       |        
G|--------------------------------|--------------------------------|
D|--------------------------------|--------------------------------|
A|--------------------------------|--------------------------------|
E|5---5---5---5---0---0---3---3---|5---5---5---5---5---5---5---5---|
 
 25       |       |       |       26       |       |       |        
G|--------------------------------|--------------------------------|
D|--------------------------5-----|--------------------------------|
A|------------------5-----7-------|--------------------------------|
E|5---5---5---5---8---------------|5---5---5---5---5---5---5---5---|
 
 27       |       |       |       28       |       |       |        
G|------------------------12/-----|--------------------------------|
D|--------------------------------|--------------------------------|
A|--------------------------------|----------------------------3---|
E|5-------------------------------|5---5---5---5---5---5---5-0-----|
 
 29       |       |       |       30       |       |       |        
G|--------------------------------|--------------------------------|
D|--------------------------5-7---|--------------------------5-7---|
A|--------------------5---7-------|--------------------5---7-------|
E|5---5---5---5---5-8-------------|5---5---5---5---5-8-------------|
 
 31       |       |       |       32       |       |       |        
G|--------------------------------|--------------------------------|
D|--------7---------------5-------|--------------------------------|
A|--------------------------7-----|----------------------------3---|
E|5---5-------5---0-5-8-------8---|5---5---5---5---5---5---5-0-----|
 
 33       |       |       |       34       |       |       |        
G|--------------------------------|--------------------------------|
D|--------------------------------|----------------------------7---|
A|--------------------------------|------------------------5-7-----|
E|5---5---5---5---5---5---5-3-0---|5---5---5---5---5-5-8-----------|
 
 35       |       |       |       36       |       |       |        
G|--------------------------------|--------------------------------|
D|--------7---------------5-------|--------------------------------|
A|--------------------------7-----|----------------------------3---|
E|5---5-------5---0-5-8-------8---|5---5---5---5---5---5---5-3-----|
 
 37       |       |       |       38       |       |       |        
G|--------------------------------|--------------------------------|
D|--------------------------------|--------------------------5-7---|
A|--------------------------------|--------------------5---7-------|
E|5---5---5---5---0---0---3---3---|5---5---5---5---5-8-------------|
 
 39       |       |       |       40       |       |       |        
G|--------------------------------|--------------------------------|
D|--------7---------5-------------|--------------------------------|
A|--------------------5---7-------|--------------------------0-2---|
E|5---5-------5---5---------8-5---|1---1---1---1---1---1---1-------|
 
 41       |       |       |       42       |       |       |        
G|--------------------------------|--------------------------------|
D|--------------------------------|--------------------------5-7---|
A|5-------0-5-0---7/--------------|--------------------5---7-------|
E|------------------------0-------|5---5---5---5---5-8-------------|
 
 43       |       |       |       44       |       |       |        
G|--------------------------------|--------------------------------|
D|--------7---------------5-------|--------------------------------|
A|--------------------------7-----|----------------------------3---|
E|5---5-------5---0-5-8-------8---|5---5---5---5---5---5---5-3-----|
 
 45       |       |       |       46       |       |       |        
G|--------------------------------|--------------------------------|
D|--------------------------------|--------------------------5-7---|
A|--------------------------------|--------------------5---7-------|
E|5---5---5---5---5---5---0-3-0---|5---5---5---5---5-8-------------|
 
 47       |       |       |       48       |       |       |        
G|--------------------------------|--------------------------------|
D|------------------------5-------|--------------------------------|
A|--------------------------7-----|----------------------------3---|
E|5---5---5---5---0-5-8-------8---|5---5---5---5---5---5---0-3-----|
 
 49       |       |       |       50       |       |       |        
G|--------------------------------|--------------------------------|
D|--------------------------------|----------------------------5---|
A|--------------------------------|------------------------5-7-----|
E|5---5---5---5---5---5---3---3---|5---5---5---5---0-5-8-----------|
 
 51       |       |       |       52       |       |       |        
G|--------------------------------|--------------------------------|
D|--------------------------------|--------------------------------|
A|--------------------------------|--------------------------------|
E|5-5-5---5---0---5-5-0---3-0-0---|1---1---1---1---1---1---5---5---|
 
 53       |       |       |       54       |       |       |        
G|--------------------------------|--------------------------------|
D|--------------------------------|--------------------------5-7---|
A|5---X-------------------7-X-----|--------------------5---7-------|
E|--------8-------7-----------5---|5---5---5---5---5-8-------------|
 
 55       |       |       |       56       |       |       |        
G|--------------------------------|--------------------------------|
D|----------7---------------------|--------------------------------|
A|--------------------------------|--------------------------------|
E|5-5-5---5---5---0---0---3---3---|5---5---5---5---5---5---5---5---|
 
 57       |       |       |       58       |       |       |        
G|--------------------------------|--------------------------------|
D|--------------------------------|--------------------------------|
A|--------------------------------|--------------------------------|
E|5---5---5---5---5---5---0-3-0---|5---5---5---5---5---5---5---5---|
 
 59       |       |       |       60       |       |       |        
G|--------------------------------|--------------------------------|
D|------------------------5-------|--------------------------------|
A|--------------------------7-----|--------------------------------|
E|5---5---5---5---5-5-8-------8---|5---5---5---5---5---5---5---5---|
 
 61       |       |       |       62       |       |       |        
G|--------------------------------|--------------------------------|
D|--------------------------------|--------------------------------|
A|--------------------------------|--------------------------------|
E|5---5---5---5---0---0---3---3---|5---5---5---5---5-----------0---|
 
 63       |       |       |       64       |       |       |        
G|--------------------------------|--------------------14--12------|
D|------------------5-------------|--------3-----------------------|
A|--------------------4---7-------|------------------15------------|
E|5---5---5---5---5---------7-5---|1---1-------1---13--------------|
 
 65       |       |       |       66       |       |       |        
G|----10--------------12--X-12----|--------------------------------|
D|----------------------------14--|--------7-----------------------|
A|--12--------------14------------|--------------------------------|
E|10--------------12--------------|5---5-------5---5---5---5---5---|
 
 67       |       |       |       68       |       |       |        
G|------------------------5-4-----|--------------------------------|
D|--------------------5-------7---|--------------------------------|
A|----------------5-7-------------|------------------------7---7---|
E|5---5---5---8-------------------|5---5---5---5---5---5-----------|
 
 69       |       |       |       70       |       |       |        
G|--------------------------------|--------------------------------|
D|--------------------------------|--------------------------------|
A|--------------------------------|--------------------------------|
E|5---5---5---5---5---5---0-3-0---|5---5---5---5---5---5---5---5---|
 
 71       |       |       |       72       |       |       |        
G|--------------------------------|--------------------------------|
D|----------------121412--107-----|--------------------------------|
A|--------7-1010--------------7---|--------------------------------|
E|7-9-9---------------------------|5---5---5---5---5---5---5-3-0---|
 
 73       |       |       |       74       |       |       |        
G|--------------------------------|--------------------------------|
D|--------7-----------------------|--------------------------5-7---|
A|----------------------------3---|------------------------4/------|
E|5---5-------5---5---5---0-3-----|5---5---5---5---5---5-----------|
 
 75       |       |       |       76       |       |       |        
G|--------------------------------|--------------------------------|
D|--7-------6-------5-------4-----|--------------------------------|
A|--------------------------------|--------------------------------|
E|5---0---4---0---3---0---2---0---|1---1---1---1---1---1---2/7-4---|
 
 77       |       |       |       78       |       |       |        
G|--------7-----------------------|--------------------------------|
D|--------------------------------|--------------------------------|
A|5---5-------5---7/7-7-----7-----|--------------------------5-7---|
E|------------------------0-------|5---5---5---5---5---5---8-------|
 
 79       |       |       |       80       |       |       |        
G|--------------------------------|--------------------------------|
D|--------------------------------|--------------------------------|
A|--------------------------------|--------------------------------|
E|5---5---5---5---5---0---3---0---|1---1---1---0---1---1---3/--5---|
 
 81       |       |       |       82       |       |       |        
G|--------------------------------|--------------------------------|
D|------------------------3---2---|----------------------------7---|
A|--------------------3/----3-----|5---5---5---5---5---5---5-7-----|
E|3---3---3---3---3---------------|--------------------------------|
 
 83       |       |       |       84       |       |       |        
G|--------------------------------|--------------------------------|
D|--------7-----------------------|--------------------------------|
A|--------------------------------|------------------------0---0---|
E|5---5-------0---5---5---8---8---|1---1---1---1---1---1-----------|
 
 85       |       |       |       86       |       |       |        
G|--------------------------------|--------------------------------|
D|--------------------------5-7---|--------------------------------|
A|--------------------5---7-------|5---5---5---5---5---5---5---0---|
E|5---5---5---5---5-8-------------|--------------------------------|
 
 87       |       |       |       88       |       |       |        
G|--------------------------------|--------------------------------|
D|--------------------------------|--------------------------------|
A|2-------------------------------|----------------------------3---|
E|----------------0---------------|5---5---5---5---5---5---5-3-----|
 
 89       |       |       |       90       |       |       |        
G|--------------------------------|--------------------------------|
D|--------------------------------|--------7-------------------7---|
A|----------------------------3---|------------------------5-7-----|
E|5---5---5---5---5---5---0-3-----|5---5-------5---5-5-8-----------|
 
 91       |       |       |       92       |       |       |        
G|--------------------------------|--------------------------------|
D|--------7---------------5-2-----|--------------------------------|
A|------------------0-3-------3---|----------------------------3---|
E|5---5-------0---3---------------|5---5---5---5---5---5---5-3-----|
 
 93       |       |       |       94       |       |       |        
G|--------------------------------|--------------------------------|
D|--------------------------------|--------7-------------------7---|
A|------------------------5/7-----|------------------------5-7-----|
E|5---5---5---5---5---5-------0---|5---5-------5---0-5-8-----------|
 
 95       |       |       |       96       |       |       |        
G|--------------------------------|--------------------------------|
D|--------7---------5-------------|--------------------------------|
A|--------------------5---7-------|--------------------------------|
E|5---5-------5---5---------8-5---|1---1---1---1---1---1---3---3---|
 
 97       |       |       |       98       |       |       |        
G|--------------------------------|--------------------------------|
D|----------------------------5---|--------------------------------|
A|5---5---5---5---7---------7-----|--------------------------------|
E|--------------------------------|5---5---5---5---5---5---5---5---|
 
 99       |       |       |       100      |       |       |        
G|--------------------------------|--------------------------------|
D|--------------------------------|--------------------------------|
A|--------------------------------|--------------------------------|
E|5---5---5---0---1---1---3---3---|5---5---5---5---5---5---5---5---|
 
 101      |       |       |       102      |       |       |        
G|--------------------------------|--------------------------------|
D|--------------------------------|--------------------------------|
A|------------------------3-2-----|--------------------------------|
E|5---5---5---5---5---5-------3---|5---5---5---5---5-----------5---|
 
 103      |       |       |       104      |       |       |        
G|--------------------------------|--------------------------------|
D|--------------------------------|--------------------------------|
A|------------------------3-3-3---|--------------------------------|
E|5-5-5---5---5---0---0-----------|5---5---5---5---5---5---5---0---|
 
 105      |       |       |       106      |       |       |        
G|--------------------------------|--------------------------------|
D|--------------------------------|--------------------------------|
A|--------------------------------|--------------------------------|
E|5---5---5---5---5---5---5---5/--|5---5---5---5---5---5---5---5---|
 
 107      |       |       |       108      |       |       |        
G|--------------------------------|--------------------------------|
D|--------------------------------|--3-------7-------10------11----|
A|------------------------12/-----|--------------------------------|
E|5---5---5---5---5---5-------0---|1---1---5---5---8---8---9---0x--|
 
 109      |       |       |       110      |       |       |        
G|--7-------5-------4-------------|--------------------------------|
D|--------------------------------|--------7-------------------7---|
A|5-------3-------2---------------|------------------------5-7-----|
E|----0-------0-------0---0/7-----|5---5-------5---5---5-----------|
 
 111      |       |       |       112      |       |       |        
G|------------------5-----7-------|--------------------------------|
D|7-------5---7---5---7-----9-9---|--------------------------------|
A|--5-7-----7---------------------|--------------------------------|
E|--------------------------------|5---5---5---5---5-5-5---5---5---|
 
 113      |       |       |       114      |       |       |        
G|--------------------------------|--------------------------------|
D|--------------------------------|--------------------------------|
A|--------------------------------|--------------------------------|
E|5---5---5---5---0---0---3---3---|5-5-5---5-------5-5-5---5---5---|
 
 115      |       |       |       116      |       |       |        
G|--------------------5---4-------|--------------------------------|
D|------------------5-------7-----|--------------------------------|
A|------------5---7-----------7---|--------------------------------|
E|5---5---5-8---------------------|5-5-5---5---5---5---5---5---5---|
 
 117      |       |       |       118      |       |       |        
G|--------------------------------|--------------------------------|
D|--------------------------------|--------------------------------|
A|--------------------------------|--------------------------------|
E|5---5---5---5---5---5---5---5---|5-5-5---5---5---5-5-5---5---5---|
 
 119      |       |       |       120      |       |       |        
G|--------------------------------|--------------------------------|
D|------------------5-------------|--------3-----------------------|
A|--------------------5---7-3-----|------------1/--8---0-----------|
E|5---5---5---5---5-----------5---|1---1-------------8---------0---|
 
 121      |       |       |       122      |       |       |        
G|----10--------------------------|--------------------------------|
D|--------------------------------|------------------------2-------|
A|--12------------7/--------2-3---|0---0---0---0---0---0-----2-----|
E|10------------------0---0-------|----------------------------3---|
 
 123      |       |       |       124      |       |       |        
G|--------------------------------|--------------------------------|
D|--------------------7-----5-----|--------------------------------|
A|----------------------------7---|--------------------------------|
E|5---5---5---5---5---------------|1---1---1---1---1---1---5---5---|
 
 125      |       |       |       126      |       |       |        
G|--------------------------------|----------------10--------------|
D|------------------------0-2-----|--------------------------------|
A|------------------0-2-------2---|5-5-5-------12/---12------------|
E|3---3---3---3---3---------------|--------------------10----10----|
 
 127      |       |       |       128      |       |       |        
G|--------------------------------|--------------------------------|
D|--------------------------------|--------------------------------|
A|--------------------------------|--------------------------------|
E|5---5---5-5-5---3-3-0---2-2-0---|1---1---1---1---1---1---1---5/--|
 
 129      |       |       |       130      |       |       |        
G|--------------------------------|--------------------------------|
D|--------7---------------3-------|----------------10--------------|
A|--------------------------7-----|------------------12------------|
E|5---5-------5---5---5-----------|10--10--10--10------10--10108---|
 
 131      |       |       |       132      |       |       |        
G|--------------------------------|------------------------121012--|
D|--------------------------------|--------------------------------|
A|----------------7---------------|--------------------------------|
E|7---7---7---7-------0---3---5---|1-1-1---4-4-0---7-7-0-----------|
 
 133      |       |       |       134      |       |       |        
G|--7-----------------------------|--------------------17--17------|
D|----------7-------5-------7-----|----12--12--12----15------15----|
A|5-------------------------------|--12------12----17/---------17--|
E|----2---5---2---3---0---5---5---|10------------------------------|
 
 135      |       |       |       136      |       |       |        
G|--------------------------------|--------------------------------|
D|--------------------------------|--------------------------------|
A|--------------------------------|--------------------------------|
E|5---5---5---5---5---5---5---5---|1---1---1---1---1---1---3---3---|
 
 137      |       |       |       138      |       |       |        
G|--------------------------------|--------------------------------|
D|------------------------7-------|--------------------------------|
A|--------------------7-----7-----|5-5-X-------3---5-3-5-----5-3---|
E|5---5---5---5---5-5---------2---|--------------------------------|
 
 139      |       |       |       140      |       |       |        
G|--------------------------------|--------------------------------|
D|--------------------------------|--------------------------5-7---|
A|--------X-5-7-----------7-------|--------------------5---7-------|
E|7-7-7-----------0-0-0-----0-4---|5---5---5---5---5-8-------------|
 
 141      |       |       |       142      |       |       |        
G|--------------------------------|--------------------------------|
D|--------7---------------5-------|--------7-------------------7---|
A|--------------------------7-----|------------------------5-7-----|
E|5---5-------5---0-5-8-------8---|5---5-------5---5-5-8-----------|
 
 143      |       |       |        
G|--------------------------------|
D|--------------------------------|
A|--------------------------------|
E|--------0-------5---------------|
 


Tablature Legend
----------------
h - hammer-on
/ - slide
x - muted note
X - dead note

Created with TablEdit http://www.tabledit.com/
Добавлено: 05.11.2015
Вам также может быть интересно:
Другие материалы по этой песне:
  • Аккорды и текст

Страница создана 05.11.2015
http://primanota.ru/eric-johnson/rock-me-baby-live-chords.htm
Привет, Гость.
Предлагаем пройти революционный курс по гитаре.
Подарок от PrimaNota.Ru, забирай!