PrimaNota.ru - самый крупный в мире бесплатный архив песенных текстов, аккордов, табулатур и нот


Eric Johnson - Friends - текст песни, таба, видео

Регистрация Запомнить меня
Войти через:  Facebook Google Twitter Vk Yandex Mail.ru

Eric Johnson - Friends - текст песни, таба, видео

Печатать
Просмотров: 126
-------------------------------------------------------------------------------
                             Friends - Eric Johnson
-------------------------------------------------------------------------------
Tabbed by:
E-mail:

Tuning: Standard

Intro
e|------------------------------5--------------------------------------------|
B|----6---8---------6---8----------------------------------------------------|
G|----3---5---7-----3---5---7------------------------------------------------|
D|------------5-------------5------------------------------------------------|
A|---------------------------------------------------------------------------|
E|---------------------------------------------------------------------------|
Repeat 4x

Verse 
e|------------------------------------------------------5--------------------|
B|----6---8---------6---8---6-----6---8---------6---8------------------------|
G|----3---5---7-----3---5---3-----3---5---7-----3---5---7--------------------|
D|------------5---------------------------5----------------------------------|
A|---------------------------------------------------------------------------|
E|---------------------------------------------------------------------------|

e|---------------------------------------------------------------------------|
B|----6---8---------6---8---6-----6---8--------------------------------------|
G|----3---7---7-----3---5---------3---5---7-----3---5---0~~------------------|
D|------------5-------------3-------------5----------------------------------|
A|----------------------------------------------1---3------------------------|
E|---------------------------------------------------------------------------|

e|--------------------------------------------6---8----6---------------------|
B|----6---8---------6---8---6-----6---8----------------8------6---8----------|
G|----3---5---7-----3---5---3-----3---5---7---7---7-----------3---5---7------|
D|------------5---------------------------5---------------------------5------|
A|---------------------------------------------------------------------------|
E|---------------------------------------------------------------------------|

e|---------------------------------------------------------------------------|
B|----6---8---6-----6---8---------6----to chorus-----------------------------|
G|----3---5---3-----3---5---7------------------------------------------------|
D|--------------------------5-----3------------------------------------------|
A|---------------------------------------------------------------------------|
E|---------------------------------------------------------------------------|

Chorus
e|---------------------------------------------------------------------------|
B|----6---6---8-----6----8-----------6---6---8-----6----8--------------------|
G|----3---3---5-----5----7-----------3---3---5-----5----7--------------------|
D|------------------3----5---3/5-------------------3----5--------------------|
A|---------------------------------------------------------------------------|
E|---------------------------------------------------------------------------|

e|---------------------------------------------------------------------------|
B|----6---6---8---8-----8-----6----8-----------6---6---8----6----------------|
G|----3---3---5------5--------5----7-----------3---3---5----5----------------|
D|----------------------------3----5---3/5------------------3----------------|
A|---------------------------------------------------------------------------|
E|---------------------------------------------------------------------------|

Verse 2
e|------------------------------5--------------------------------------------|
B|----6---8---------6---8-------------6---8---------6----8-------------------|
G|----3---5---7-----3---5---7---------3---5---7----------7-------------------|
D|------------5-------------5-----------------5-----3----5-------------------|
A|---------------------------------------------------------------------------|
E|---------------------------------------------------------------------------|

e|-------------------------------------------------------5-------------------|
B|----6---8---------6---8---6-----6---8---------6---8------------------------|
G|----3---5---7-----3---5---3-----3---5---7-----3---5----7-------------------|
D|------------5---------------------------5----------------------------------|
A|---------------------------------------------------------------------------|
E|---------------------------------------------------------------------------|

e|---------------------------------------------------------------------------|
B|----6---8---------6---8----6-----6---8-------------------------------------|
G|----3---5---7-----3---5----------3---5---7-----3---5---0~~-----------------|
D|------------5--------------3-------------5---------------------------------|
A|-----------------------------------------------1---3-----------------------|
E|---------------------------------------------------------------------------|

e|----------------------------------------------6---8----8-------------------|
B|----6---8---------6---8---6-----6---8------------------6-------------------|
G|----3---5---7-----3---5---3-----3---5---7-----7---7------------------------|
D|------------5---------------------------5----------------------------------|
A|---------------------------------------------------------------------------|
E|---------------------------------------------------------------------------|

e|---------------------------------------------------------------------------|
B|----6---8-----6---6-----6---8---------6------------------------------------|
G|----3---5---------------3---5---7-----------to chorus----------------------|
D|--------------3---3-------------5-----3------------------------------------|
A|---------------------------------------------------------------------------|
E|-----under piano-----------------------------------------------------------|

Chorus 2
e|----------------------------------------------------------6--8^9^8--6------|
B|----6---6---8-----6---8-----------6---6---8-----6---8------------------8---|
G|----3---3---5-----5---7-----------3---3---5-----5---7----------------------|
D|------------------3---5---3/5-------------------3---5----------------------|
A|---------------------------------------------------------------------------|
E|---------------------------------------------------------------------------|

e|----------------------------------------------------------slow-------------|
B|----6---6---8-------------8--11p10------8~~-------------10^11^10--6--8~~---|
G|----3---3---5---------10------------10---------------10--------------------|
D|------------------10-------------------------------------------------------|
A|--------------------------------played over top of chords------------------|
E|---------------------------------------------------------------------------|

e|----------------------------------------------------------------------------|
B|----6---6---8-----6---8-----------------------------------------------------|
G|----3---3---5-----5---7-----------------------------------------------------|
D|------------------3---5-------------3---5~~---------------------------------|
A|--------------------------------5-------------------------------------------|
E|----------------------------3-----------------------------------------------|

Bridge
e|---------------------------------------------------------------------------|
B|---------------------------------------------------------------------/20~~-|
G|---------------------------------------------------------------------------|
D|----------------3------3p0-------3------3h5--------3------3p0--------------|
A|---------------------------------------------------------------------------|
E|----/15\----3-3---3--3-------3-3---3--3--------3-3---3--3------------------|

e|---------------------------------------------------------------------------|
B|---------------------------------------------------------------------------|
G|---------------------------------------------------------------------------|
D|------------3------3p0---------3------3h5----------------------------------|
A|---------------------------------------------------------------------------|
E|--------3-3---3--3---------3-3---3--3--------------------------------------|
Repeat 5x

e|---------------------------------------------------------------------------|
B|---------------------------------------------------------------------------|
G|---------------------------------------------------------------------------|
D|--------3------3p0----------to solo----------------------------------------|
A|---------------------------------------------------------------------------|
E|----3-3---3--3-------------------------------------------------------------|

Solo
e|---------------------------------------------/18-17-15---15-------15-------|
B|----------------------15--18^20-18^20^18-15-----------------18^20---18-15--|
G|----------------15-17------------------------------------------------------|
D|----------15-17------------------------------------------------------------|
A|----15-17------------------------------------------------------------------|
E|---------------------------------------------------------------------------|

e|---------------------------------------------------------------------------|
B|------------------------------------13----------18~~-------15h18-------20~-|
G|---17^19^17p15--------------------12---12-15/17---------17----------17-----|
D|---------------17p15-17-17------12-------------------------------15--------|
A|---------------------------------------------------------------------------|
E|---------------------------------------------------------------------------|

e|----------------------------------------------13--17/18\17-15~~------------|
B|-----------------------------------13---13-15------------------------------|
G|-----------------------12---12-15------------------------------------------|
D|-------------12--12-15-----------------------------------------------------|
A|---13h15p13----------------------------------------------------------------|
E|---------------------------------------------------------------------------|

Chorus 3
e|-----------------------------------------------------------6--8^9^8-6------|
B|---6---6---8-----6----8-----------6---6---8-----6---8------------------8~~-|
G|---3---3---5-----5----7-----------3---3---5-----5---7----------------------|
D|-----------------3----5---3/5-------------------3---5----------------------|
A|---------------------------------------------------------------------------|
E|---------------------------------------------------------------------------|

e|---------------------------------------------------------------------------|
B|---6---6---8-----------8--11p10------8~~----------10^11^10--6--8~~---------|
G|---3---3---5--------10-----------10------------10--------------------------|
D|-----------------10--------------------------------------------------------|
A|---------------------------------------------------------------------------|
E|---------------------------------------------------------------------------|

e|---------------------------------------------------------------------13-15-|
B|----6---6---8-----6--------------------------------------------13-15-------|
G|----3---3---5-----5--------------------------12---12-15--12-15-------------|
D|------------------3----------10-12/15--12-15----15-------------------------|
A|-----------------------10-13-----------------------------------------------|
E|---------------------------------------------------------------------------|

Outro Solo
e|--18/20-18p17-------------17-18-18-----------------------------------------|
B|--------------18-------18----------18p15-20--(18)---13-15-13---------------|
G|-----------------17---------------------------------------------15-14-12---|
D|--------------------15---------------------------------------15------------|
A|---------------------------------------------------------------------------|
E|---------------------------------------------------------------------------|

e|---------------------------------------------------------------------------|
B|-----------------------------------------------18----------------------18--|
G|---15^17-15p14----12---------------12-15/17\15-----17\15-12h15/17-15-17----|
D|---------------15------------12-15-----------------------------------------|
A|-----------------------13-15-----------------------------------------------|
E|---------------------------------------------------------------------------|

e|---------15--18-17h18-15---17h18--15h18p15---------------------------------|
B|---15-18-------------------------------------------------------------------|
G|-------------------------------------------17^19^17-15------------------12-|
D|------------------------------------------------------17--------15-12-15---|
A|-----------------------------------------------------------13-15-----------|
E|---------------------------------------------------------15----------------|

e|-------------------------------------------------------------15h18p15------|
B|----------------------------------------------------15h18/20---------------|
G|------------------12-15^17--15^17-15^17^15p12-15/17------------------------|
D|------------12-15----------------------------------------------------------|
A|------13-15----------------------------------------------------------------|
E|---15----------------------------------------------------------------------|

e|---18/20-18p17----15-------------------15-------------------17-20----------|
B|---------------18------------13-----13-------------------------------------|
G|--------------------------12-----12-------------15h17----17----------------|
D|-----------------------10--------------------15-------15-------------------|
A|---------------------------------------------------------------------------|
E|---------------------------------------------------------------------------|

e|---------------------15-18/20-18--(15)-------------------------------------|
B|------------------18-------------------------------------------------------|
G|---------------15----------------------------------------------------------|
D|---------15-17-------------------------------------------------------------|
A|---13-15-------------------------------------------------------------------|
E|---------------------------------------------------------------------------|

Outro
e|-----------------------------5---------------------------------------------|
B|----6---8---------6---8------------6---8--------10/11--10--8--6------------|
G|----3---5---7-----3---5---7--------3---5---7-------------------------------|
D|------------5-------------5----------------5-----7/8----7--5--3------------|
A|---------------------------------------------------------------------------|
E|---------------------------------------------------------------------------|

e|----------------------------5----------------------------------------------|
B|---6---8---------6---8------------6---8---------6---8----------------------|
G|---3---5---7-----3---5---7--------3---5---7-----3---3---(7)----------------|
D|-----------5-------------5----------------5--------------natural-----------|
A|---------------------------------------------------------------------------|
E|---------------------------------------------------------------------------|

************************************
()    Pinch harmonic (unless otherwise noted)
| /   slide up
| \   slide down
| h   hammer-on
| p   pull-off
| ~   vibrato
| +   harmonic
| x   Mute note
| b   Bend
| pb  Pre-bend
| br  Bend release
| pbr Pre-bend release
| brb Bend release bend

************************************
Добавлено: 30.07.2015
Другие материалы по этой песне:

Страница создана 18.04.2012
http://primanota.ru/eric-johnson/friends-chords.htm
Привет, Гость.
Предлагаем пройти революционный курс по гитаре.
Подарок от PrimaNota.Ru, забирай!