PrimaNota.ru - самый крупный в мире бесплатный архив песенных текстов, аккордов, табулатур и нот


Eric Gales - Insane - таба, видео

Регистрация Запомнить меня
Войти через:  Facebook Google Twitter Vk Yandex Mail.ru

Eric Gales - Insane - таба, видео

Печатать
Просмотров: 178
Author/Artist: Eric Gales
Title: Insane
Album: That's The Way I Am
Transcribed by: drkrakpot
Email: ehusney@hotmail.com

This is a awesome song! Tuning: D-A-D-G-B-E
D = Down stroke
U = Up stroke

------------------------------------------------------------------------------|
------------------------------------------------------------------------------|
------------------------------------------------------------------------------|
-x-x--3--0--x-x--3--0---------------------------------------------------------|
-x-x--3--0--x-x--3--0---------------------------------------------------------|
-x-x--3--0--x-x--3--0---------------------------------------------------------|
 D U      . D U       Intro

------------------------------------------------------------------------------|
-9-10-9--9-10-9--9-10-12-10-9-------------------------------------------------|
------------------------------------------------------------------------------|
------------------------------------------------------------------------------|
------------------------------------------------------------------------------|
------------------------------------------------------------------------------|
 2nd guitar over intro.        Repeat

------------------------------------------------------------------------------|
------------------------------------------------------------------------------|
------------------------------------------------------------------------------|
-x-x--3--0--x-x--3-0--5--3v---------------------------------------------------|
-x-x--3--0--x-x--3-0----------------------------------------------------------|
-x-x--3--0--x-x--3-0----------------------------------------------------------|
 D U        D U              Verse
Добавлено: 30.05.2012
Вам также может быть интересно:
Другие материалы по этой песне:
  • Аккорды и текст

Страница создана 30.05.2012
http://primanota.ru/eric-gales/insane-chords.htm
Привет, Гость.
Предлагаем пройти революционный курс по гитаре.
Подарок от PrimaNota.Ru, забирай!