PrimaNota.ru - самый крупный в мире бесплатный архив песенных текстов, аккордов, табулатур и нот


Eric Framond - Ghetto - таба, видео

Регистрация Запомнить меня
Войти через:  Facebook Google Twitter Vk Yandex Mail.ru

Eric Framond - Ghetto - таба, видео

Печатать
Просмотров: 74
Eric Framond - GHETTO ( 1976 )

http://www.discogs.com/Eric-Framond-Puzzle/release/2952390
http://www.discogs.com/artist/384477-Eric-Framond

Eric Framond ( 1910 - †1981 ) = a French  Klarinettist, Bandleader, Filmkomponist und Arrangeur

http://fingersports.blogspot.be/2010/04/eric-framond-univers-2000.html

The song Ghetto = https://www.youtube.com/watch?v=E7D31jojjR4


Very easy and funky as hell ( solo in the middle not tabbed - still figuring out )


   1.Bassline intro

G-|----------------|
D-|----------------|
A-|----------------|
E-|--------------1-|


     Bassline

G-|----------------|----------------|----------------|----------------|
D-|----------------|----------------|----------------|----------------|
A-|----------------|------1-3-------|----------------|----------------|  repeated the whole song
E-|3---------------|----3-----------|3-3-------------|--------------1-|


  

   2.Guitar ( Wah wah )

E |10--------------|
B-|11--------------|
G-|13--------------|
D-|13--------------|  the whole song
A-|11--------------|
E-|11--------------|



   3.Trumpet ( melody )

E |--------10------|-------6-8-10-6-|----------------|----------------|
B-|----8-8---------|----------------|8---------------|----------------|
G-|--7-------------|----------------|----------------|----------------|
D-|----------------|----------------|----------------|----------------|  x3
A-|----------------|----------------|----------------|----------------|
E-|----------------|----------------|----------------|----------------|

                                                                                Repeat

E |--------10------|-----------10---|----------------|----------------|
B-|----8-8---------|------11-13--13-|----------------|----------------|
G-|--7-------------|----------------|----------------|----------------|
D-|----------------|----------------|----------------|----------------|  x1
A-|----------------|----------------|----------------|----------------|
E-|----------------|----------------|----------------|----------------|
Добавлено: 08.06.2016
Другие материалы по этой песне:
  • Аккорды и текст

Страница создана 08.06.2016
http://primanota.ru/eric-framond/ghetto-chords.htm
Привет, Гость.
Предлагаем пройти революционный курс по гитаре.
Подарок от PrimaNota.Ru, забирай!