PrimaNota.ru - самый крупный в мире бесплатный архив песенных текстов, аккордов, табулатур и нот


Eric Fish - Im Spiegel - таба, видео

Регистрация Запомнить меня
Войти через:  Facebook Google Twitter Vk Yandex Mail.ru

Eric Fish - Im Spiegel - таба, видео

Печатать
Просмотров: 151
Уроки эстрадного вокала в Санкт-Петербурге
Eric Fish – Im Spiegel

Standard E Tuning

Intro:
                
|------2------5-|-3--2--0--------|------0h2--------|-2-----p0-------|
|-0-h3----------|----------3-----|-0--h3-----------|----------------|
|---------------|----------------|-----------------|----------------|
|-0-------------|-0--------------|-2---------------|----------------|
|---------------|----------------|-----------------|----------------|
|---------------|----------------|-----------------|-0--------------|

Verse pattern #1:

 Em                     Cadd9                       
|-3---3---3---3---3---3-|-3---3---3---3---3---3-|
|------3-------3--------|------3-------3--------|
|---0---0---0---0---0---|---0---0---0---0---0---|
|--2-------2-------2----|--2-------2-------2----|
|-2-------2-------2---2-|-3-------3-------3---0-|
|-----------------------|-----------------------|

 G                       D     D*         D
|-3---3---3---3---3---3-|-3----5----2----2h3----|
|------3-------3--------|--3----3----3------3-2-|
|-------0-------0-------|-------------2------2--|
|---0-------0-------0---|-0--0----0-------------|
|--2-------2-------2----|-----------------------|
|-3-------3-------3---3-|-----------------------|


Verse pattern #2:

 Cadd9        G          D     D*         D                       
|-3---3------3---3------|-3----5----2----2h3----|
|------3----------3-----|--3----3----3------3-2-|
|---0---0----------0----|-------------2------2--|
|--2-------2---0------0-|-0--0----0-------------|
|-3-------3---2------2--|-----------------------|
|------------3----------|-----------------------|

Use #1:
Em                                 Cadd9
     Immer, immer wieder, sitz ich vor dem Spiegel
     G                                  D   D*  D
Ich schaue in die Welt,     Ich blicke auf das Land .
    Em                     Cadd9
Ich spiegel mich in tiefen Seen in Pfützen und auf
G                        D    D*    D
Bergeshöhn  Kann mich im Eis dort sehn.
 
Use #2:
Cadd9        G                D  D*  D
        Ich dreh mich hin und her 
        Ich schau mich selber an 

     Cadd9        G 
Versuch zu sehen was ich bin 
Versuch zu sehen was mich treibt 
    Cadd9                  D   D*   D 
Versuch zu sehen ob etwas von mir bleibt 


Chorus pattern #3:

 Em    D/Fis  G     G*     G**   Cadd9    D   
|----3----3----3----3---|----3-----3-----2h3----|
|-----3----3----3----3--|-----3-----3---3---3-2-|
|-----------------------|--------------2-----2--|
|-----------------0-----|--0-----2----0---------|
|--2----0----2---0------|-2-----3---------------|
|-0----2----3-----------|-----------------------|

Use #3:
Em          D/Fis    G       G*
Spieglein, Spieglein an der Wand
    G**      Cadd9    D
Wer ist der Schönste hier im Land?
Em          D/Fis       G       G*
Ich kann es wohl nicht sein 
     G**      Cadd9      D
Wie könnt ich sonst ich selbst noch sein? 

Use #1:
Em                              Cadd9
  Immer, immer wieder, sitz ich vor dem Spiegel 
      G                                 D   D*  D
Ich schaue in die Welt,     Ich blicke auf das Land 
    Em                 Cadd9                       G
Wo alle durcheinander schrei'n, ein jeder will besonders sein 
              D   D*  D
Und ist doch nur Statist 

Use #2:
Cadd9           G                   D  D*  D
           Sie reden        von Erfolg 
           Von Können       und Talent 
    Cadd9             G 
Und halten schon das Kreuz bereit 
Für jeden der sie    übersteigt 
Cadd9                               D   D*   D
                    Ihr Kleid ist grün vor Neid 

Use #3:
Spieglein, Spieglein an der Wand 
Wer ist der Reichste hier im Land? 
Ich kann es wohl nicht sein 
Wie könnt ich sonst ich selbst noch sein? 

Bridge pattern #4:

 Em7                    Cadd9                       
|-----3-------3---------|-----3-------3---------|
|------3-------3--------|------3-------3--------|
|---0---0---0---0---0---|---0---0---0---0---0---|
|--2-------2-------2----|--2-------2-------2----|
|-0-------0-------0---0-|-3-------3-------3---3-|
|-----------------------|-----------------------|




 Em7           G        Cadd9                    D     D*         D         
|-----3----------3-----|-----3-------3---------|-3----5----2----2h3----|
|------3----------3----|------3-------3--------|--3----3----3------3-2-|
|---0---0----------0---|---0---0---0---0---0---|-------------2------2--|
|--2-------2----0----0-|--2-------2-------2----|-0--0----0-------------|
|-0-------0----2----2--|-3-------3-------3---3-|-----------------------|
|-------------3--------|-----------------------|-----------------------|




Use #4:
Em7                       Cadd9
Ein jedes Ding hat seinen Preis  /  Wer kann mir meinen sagen? 
Em7                   G                  Cadd9
Wer hat soviel, dass ihm die Welt  / Mit allem was drauf steht und geht 
    D   D*  D
Zu Füßen fällt? 

Use #3:
Spieglein, Spieglein an der Wand 
Wer ist der Größte hier im Land? 
Ich kann es wohl nicht sein 
Wie könnt ich sonst ich selbst noch sein? 
 
Use #4:
Nicht jedes Ding hat seinen Preis 
Ich will auch keinen haben! 
Ich hab soviel, dass mir die Welt 
Mit allem was drauf steht und geht 
Zu Füßen fällt! 
 
and 3# again: (2x)
Spieglein, Spieglein an der Wand 
Wer singt die schönsten Lieder im Land? 
Das kann ich nur sein! 
Wie könnt ich sonst ich selbst noch sein?

-------------------------------------------------------------
tabbed by Vautour, enjoy this song!
Know something to do better? Write to vautour@reapers.de!














Добавлено: 27.07.2012
Другие материалы по этой песне:
  • Аккорды и текст

Страница создана 27.07.2012
http://primanota.ru/eric-fish/im-spiegel-chords.htm
Привет, Гость.
Предлагаем пройти революционный курс по гитаре.
Подарок от PrimaNota.Ru, забирай!