PrimaNota.ru - самый крупный в мире бесплатный архив песенных текстов, аккордов, табулатур и нот


Eric Fish - Anders Sein - таба, видео

Регистрация Запомнить меня
Войти через:  Facebook Google Twitter Vk Yandex Mail.ru

Eric Fish - Anders Sein - таба, видео

Печатать
Просмотров: 133
Eric Fish is the lead singer of the German band 'Subway to Sally'
(their style is something like 'medieval metal'), and he has a solo
project in which he plays some really nice pieces on acoustic guitar
(partly also accompanied by another two guitarists/singers).
More information on www.ericfish.de (sorry, just german page available)

You can download a snapshot of this song here:
www.ericfish.de/fileadmin/ericfish/hoerproben/eric_fish_anders_sein.mp3

----------------------------------------------------------------------------
     ERIC FISH - Anders Sein
----------------------------------------------------------------------------
Tabbed by: Vautour
Email:     vautour@reapers.de

Tuning:   Standard E

Intro:

  Dm                         Cadd9
|-----0-------------8-----|-----8-------------8-----|
|---6---6-----------6-----|---8---8-----------5-----|
|-------------------7-----|-------------------7-----|
|-------------------0-----|-------------------0-----|
|-0-----------------------|-0-----------------------|
|-------------------------|-------------------------|


  Dm                         Cadd9
|-----10------------8-----|-----13------------8-----|
|---10--10----------6-----|---13--13----------5-----|
|-------------------7-----|-------------------7-----|
|-------------------0-----|-------------------0-----|
|-0-----------------------|-0-----------------------|
|-------------------------|-------------------------|



Verse patterns for Dm, Cadd9, G:

  Dm                         Cadd9
|--------1-0--------------|------------3------------|
|------3-----3------------|--------------3----------|
|----2---------2----------|--------0-------0--------|
|-------------------------|------2------------------|
|-------------------------|----3--------------------|
|-------------------------|-------------------------|


  G                       
|------------3------------|
|--------------3----------|
|----------------0--------|
|-----0-------------------|
|---2---------------------|
|-3-----------------------|

Play with patterns:
Dm  Cadd9  Dm  Cadd9  Dm  Cadd9  G  G
Dm  Cadd9  Dm  Cadd9  Dm  Cadd9  G  G


Dm              Cadd9
   Allen Winden Segel geben, 

Dm              Cadd9   
   Gut und Bös' dienstbar leben, 
   
Dm               Cadd9
   Alles Tun und alles singen 

    G
   Auf den eig'nen Nutzen sinnen.
   

Dm                 Cadd9 
   Stets im kühlen Schatten gehen, 
   
Dm               Cadd9  
   Keinem in die Augen sehen, 
   
Dm                 Cadd9  
   Starken nur die Hände reichen, 
   
    G   
   Um den Stürmen auszuweichen!

 
 
Chorus: (strumming)
------------------------------------------
Am        Em        G      D        
   Anders Sein und anders scheinen, 
   
Am        Em         G      D   
   Anders reden und anders meinen, 

Am        Em     G     D
   Alles loben, alles tragen, 
   
Am        Em           G     Cadd9  
   Allen schmeicheln, stets behagen.
------------------------------------------


 
Dm              Cadd9
   Nur der Lüge Worte leihen, 
   
Dm                Cadd9   
   Jedem Heuchler gleich verzeihen, 
   
Dm                Cadd9  
   Allen nach dem Munde reden, 
   
    G   
   nur dem Schein den Vorzug geben.

 
Dm                  Cadd9     
   Auf der sich'ren Seite leben, 

   Dm                Cadd9
   Dem Zufall keinen Namen geben, 

Dm             Cadd9   
   Immer brave Lieder schreiben, 
   
    G
   Keine Angst nach außen zeigen.


 
Chorus...

Solo: (just play some nice patterns on these accords :)
Dm  Cadd9  Dm  Cadd9  Dm  Cadd9  G  G
Dm  Cadd9  Dm  Cadd9  Dm  Cadd9  G  G
 
Am                   Em
   Wirst ein schönes Leben haben 

G               D   
   Doch an Dir selbst verzagen! 
   
Am                  Em  
   Kannst nun alle Mädchen kriegen, 
   
G                  D 
   ach, würd Dich eine nur lieben! 
   
Am                     Em  
   Wirst die falschen Freunde haben, 
   
G                    D 
   Die die Wahrheit Dir nicht sagen! 
   
Am             Em       
   Und am Ende ganz allein 
   
G                Cadd9 
   So furchtbar anders sein!

 
Bm        F#m        A      E
   Anders Sein kann auch bedeuten, 

Bm            F#m    A       E
   Sich nicht jedes Mal zu häuten, 
   
Bm          F#m        A      E   
   Wenn der Wind sich einmal dreht, 
   
Bm             F#m     A        E  
   Schmerzhaft ins Gesicht Dir weht! 
   
Bm          F#m      A      E  
   Nach dem eig'nen Weg zu suchen, 
   
Bm        F#m        A      E            
   Auch einmal für and're bluten! 
   
Bm           F#m   A       E  
   Nicht die Augen zu verschließen, 
   
Bm         F#m    A     E  
   Und den Gegenwind genießen!
   

(some strumming on C* =>
|-3-|
|-3-|
|-5-|
|-5-|
|-3-|
|-3-|
)

Non-verbal singing part till you're done :)
on these accords:

Heyjadadeiheyjadadeidadei......
Am  Em  G  D
Am  Em  G  D
Am  Em  G  D
Am  Em  G  Cadd9

------------------------------------------
That's it, if anyone knows better than me,
feel free to write to vautour@reapers.de ;-)


Добавлено: 02.04.2012
Другие материалы по этой песне:
  • Аккорды и текст

Страница создана 02.04.2012
http://primanota.ru/eric-fish/anders-sein-chords.htm
Привет, Гость.
Предлагаем пройти революционный курс по гитаре.
Подарок от PrimaNota.Ru, забирай!