PrimaNota.ru - самый крупный в мире бесплатный архив песенных текстов, аккордов, табулатур и нот


Eric Church - Thats Damn Rock N Roll - таба, видео

Регистрация Запомнить меня
Войти через:  Facebook Google Twitter Vk Yandex Mail.ru

Eric Church - Thats Damn Rock N Roll - таба, видео

Печатать
Просмотров: 225
Уроки эстрадного вокала в Санкт-Петербурге
Artist: Eric Church.
Song: That's Damn Rock N' Roll.
Album: The Outsiders.
Year: 2014.

Hi there.
Thought I would make a more detailed version of this excelent song!

Comments, questions, requests and corrections can be sent to:
Kenni-B@hotmail.com

Enjoy this, good people!


Intro:

 Bass / Guitar:
 This is played in the intro and during the first verse!
|-------------------------------------------------------------------------|
|-------------------------------------------------------------------------|
|-------------------------------------------------------------------------|
|------5-7-5------------3-5-3-------------10-12-10--------------7-10-9-7s-|
|---7---------7s5----5--------5-3------12-----------12s10----10-----------|
|-5----------------3----------------10---------------------8--------------|

Verse 1:
It ain't a needle in a vein,
It ain't backstage sex,
It ain't lines of cocaine on a private jet,
It ain't havin' a posse full of hangers on following you aroun--d,
It ain't long hair, tattoos, playin' too loud,
(No)

 Interlude:

|-----------------------------------------|
|-----------------------------------------|
|------------------7---7-7-5--------------|
|--7---7-7-5---5-5-7---7-7-5---7-10-9-7-5-| Starting over again with the A chord!
|--7---7-7-5---5-5-5---5-5-3---7-10-9-7-5-|
|--5---5-5-3---3-3-------------5-8--7-5-3-|

 Guitar Lick:                         Alternative:
|----5-------3-------2----2-----|   |------------------------------|
|------5-------3-------3----3h5-|   |----10------8------7----7-----|
|-------------------------------|   |-------9------7------7----7h9-|
|--7-------7-------7------------|   |--7-------7------7------------|
|-------------------------------|   |------------------------------|
|-------------------------------|   |------------------------------|

 Verse 2:
A                              A  G                                     G  D
It ain't a middle finger on a t-shirt, the establishments tryin' to sell,
                        D  C                             A  C  B  A  G  A
It's a guy with the balls who told the establishment to go to hell,
A                             A  G                          G  D
It ain't about the money you make, when a record gets sold,
                             D  C                            A  C  B  A  G  A
It's about doin' it for nothin', 'cause it lives in your soul.

 Chords for all verses played like this:
|-----------------------------------------|
|-----------------------------------------|
|------------------7---7-7-5--------------|
|--7---7-7-5---5-5-7---7-7-5---7-10-9-7-5-| Starting over again with the A chord!
|--7---7-7-5---5-5-5---5-5-3---7-10-9-7-5-|
|--5---5-5-3---3-3-------------5-8--7-5-3-|

Guitar Lick (Hard):                         Alternative (Easy):
|-----------------------------|  |  |------------------------------|
|----5------3------2----2-----|  |  |----10------8------7----7-----|
|------5------3------3----3h5-|  |  |-------9------7------7----7h9-|
|--7------7------7------------|  |  |--7-------7------7------------|
|-----------------------------|  |  |------------------------------|
|-----------------------------|  |  |------------------------------|
 Played during second verse.


Chorus:
C            D       A 
That's damn rock and roll,
C            D       A 
That's damn rock and roll,

Guitar Lick:                         Alternative:
|-----------------------------|   |------------------------------|
|----5------3------2----2-----|   |----10------8------7----7-----|
|------5------3------3----3h5-|   |-------9------7------7----7h9-|
|--7------7------7------------|   |--7-------7------7------------|
|-----------------------------|   |------------------------------|
|-----------------------------|   |------------------------------|

Verse 3:
        A                     A  G
It's a rock through a window,

It's a ride in the street,
G      D
It's a rebel revolution,
D    C              A  C  B  A  G  A
It's fightin' for pieces,
A
Burn baby burn,
A      G
It's a brick in the wall,
G        D
It's the first one to stand,
D       C            A  C  B  A  G  A
And the last one to fall,
       A                 A      G
It's a hip shaking devil on the stage in Tupelo,
G    D                  D          C               A  C  B  A  G  A
It's doing what ya want instead of doin' what your told,
       A                          A      G 
It's a preacher burning records, tellin' folks they outta pray,
G          D                        D    C  
'Cause the shepherd bought a Gibson, and led the flock astray,

Chords for all verses played like this:
|-----------------------------------------|
|-----------------------------------------|
|------------------7---7-7-5--------------|
|--7---7-7-5---5-5-7---7-7-5---7-10-9-7-5-| Starting over again with the A chord!
|--7---7-7-5---5-5-5---5-5-3---7-10-9-7-5-|
|--5---5-5-3---3-3-------------5-8--7-5-3-|

Chorus:
C           D        A
That's damn rock and roll,
A
Give all ya got 'till there ain't nothin' left,
C           D        A 
That's damn rock and roll,

Bridge: (Quiet.)
Get some grass 'cause the party,
And the party got loud,
And the party turned into an angry crowd.
Drowning demons feel no pain,
Found Nirvana wasted shame
Gone too soon just like a song,
Hendrix, Joplin. What went wrong?
Need some answers right or wrong,
Need something to blame it on,

(Blame it on [x10]) - On the last 'blame it on' pump and palm mute A power chord.

Chorus:
C           D        A
That's damn rock and roll,
A
(Give all ya got till there ain't nothing left)
C           D
That's damn rock and roll,

D - A - E - A
D - A - E
(oh [x12])


Verse 4:

Guitar Lick:                         Alternative:
|-----------------------------|   |------------------------------|
|----5------3------2----2-----|   |----10------8------7----7-----|
|------5------3------3----3h5-|   |-------9------7------7----7h9-|
|--7------7------7------------|   |--7-------7------7------------|
|-----------------------------|   |------------------------------|
|-----------------------------|   |------------------------------|

A          A G               G D
Another day  in another town,
                 D C                           A C B A G
Loadin' the stage,  and the lights, and the sound,
A                 A G
Here they come boys,
                    G D
They've opened doors,
                      D C - Let the C ring out!
Count us off now Craig,

(1, 2, 3, 4)


Chorus:
C           D        A
That's damn rock and roll,
A
(Give all ya got till there ain't nothing left)
C           D        A
That's damn rock and roll,
A
Gather round 'till you've broken a sweat
C           D
That's damn rock,
                     A
That's damn rock and roll.

(Rock and roll [x5])

|-----------------------------------------|
|-----------------------------------------|
|------------------7---7-7-5--------------|
|--7---7-7-5---5-5-7---7-7-5---7-10-9-7-5-| Starting over again with the A chord!
|--7---7-7-5---5-5-5---5-5-3---7-10-9-7-5-|
|--5---5-5-3---3-3-------------5-8--7-5-3-|

Guitar Lick:                         Alternative:
|-----------------------------|   |------------------------------|
|----5------3------2----2-----|   |----10------8------7----7-----|
|------5------3------3----3h5-|   |-------9------7------7----7h9-|
|--7------7------7------------|   |--7-------7------7------------|
|-----------------------------|   |------------------------------|
|-----------------------------|   |------------------------------|

End on C.

Lyrics found at:
http://www.azlyrics.com/lyrics/ericchurch/thatsdamnrockroll.html

Добавлено: 17.05.2015
Другие материалы по этой песне:
  • Аккорды и текст

Страница создана 17.05.2015
http://primanota.ru/eric-church/thats-damn-rock-n-roll-chords.htm
Привет, Гость.
Предлагаем пройти революционный курс по гитаре.
Подарок от PrimaNota.Ru, забирай!