PrimaNota.ru - самый крупный в мире бесплатный архив песенных текстов, аккордов, табулатур и нот


Eric Bibb - Needed time - таба, видео

Регистрация Запомнить меня
Войти через:  Facebook Google Twitter Vk Yandex Mail.ru

Eric Bibb - Needed time - таба, видео

Печатать
Просмотров: 98


    d|-----------0-----|------------------0---|
  T a|---------0---0---|------0---0---0-------|
  A d|-------0---2---2-|----------------------|
  B g|-----0-----------|----------------------|
    c|---0-------------|--------5---3---2-----|
Low E|-0---------------|0h5h7---------------0-|

     |-----------0-----|------------------0---|
  T  |-------------0---|------0---0---0-------|
  A  |-------0---2---2-|----------------------|
  B  |-----0-----------|----------------------|
     |---0-------------|--------5---3---2-----|
     |-0---------------|0h5h7---------------0-|

     |-----------2-----|----------------------|
  T  |-------------2---|-----2---2---2---2----|
  A  |-------2---4---4-|----------------------|
  B  |-----2-----------|-2h4---2--------------|
     |---2-------------|-----------5---4------|
     |-2---------------|----------------------|

     |-----------2-----|----------------------|
  T  |-------------2---|--2----2---2----2-----|
  A  |-------2---4---4-|----------------------|
  B  |-----2-----------|-----5-------2--------|
     |---2-------------|-0-------0------------|
     |-2---------------|----------------------|

     |------5--2--0----|-----------2----------|
  T  |---------------2-|------1---------------|
  A  |---2-------------|--2-------------------|
  B  |-----------------|-4------------0-------|
     |---0--------0--2-|----0----2------------|
     |-0----4----------|-----------0-----0----|

     |0-2-0-2-0--------|----------------------|
  T  |----------2--4---|-2--------------------|
  A  |-----------------|---Thats-all-so-far---|
  B  |--0-------0------|-0--------------------|
     |-------------4---|----------------------|
     |------0----------|----------------------|



Добавлено: 08.09.2013
Другие материалы по этой песне:

Страница создана 08.09.2013
http://primanota.ru/eric-bibb/needed-time-chords.htm
Привет, Гость.
Предлагаем пройти революционный курс по гитаре.
Подарок от PrimaNota.Ru, забирай!